  0
SECTION
  2
HEADER
  9
$ACADVER
  1
AC1018
  9
$ACADMAINTVER
 70
     0
  9
$DWGCODEPAGE
  3
ANSI_1252
  9
$INSBASE
 10
0.0
 20
0.0
 30
0.0
  9
$EXTMIN
 10
-1507.248849525999
 20
14978.7499428964
 30
0.0
  9
$EXTMAX
 10
-608.4999999999999
 20
29479.25
 30
0.0
  9
$LIMMIN
 10
0.0
 20
0.0
  9
$LIMMAX
 10
420.0
 20
297.0
  9
$ORTHOMODE
 70
     0
  9
$REGENMODE
 70
     1
  9
$FILLMODE
 70
     1
  9
$QTEXTMODE
 70
     0
  9
$MIRRTEXT
 70
     0
  9
$LTSCALE
 40
1.0
  9
$ATTMODE
 70
     1
  9
$TEXTSIZE
 40
2.0
  9
$TRACEWID
 40
1.0
  9
$TEXTSTYLE
  7
Standard
  9
$CLAYER
  8
Hilfskonstruktion
  9
$CELTYPE
  6
ByLayer
  9
$CECOLOR
 62
   256
  9
$CELTSCALE
 40
1.0
  9
$DISPSILH
 70
     0
  9
$DIMSCALE
 40
1.0
  9
$DIMASZ
 40
2.5
  9
$DIMEXO
 40
0.625
  9
$DIMDLI
 40
3.75
  9
$DIMRND
 40
0.0
  9
$DIMDLE
 40
0.0
  9
$DIMEXE
 40
1.25
  9
$DIMTP
 40
0.0
  9
$DIMTM
 40
0.0
  9
$DIMTXT
 40
2.5
  9
$DIMCEN
 40
2.5
  9
$DIMTSZ
 40
0.0
  9
$DIMTOL
 70
     0
  9
$DIMLIM
 70
     0
  9
$DIMTIH
 70
     0
  9
$DIMTOH
 70
     0
  9
$DIMSE1
 70
     0
  9
$DIMSE2
 70
     0
  9
$DIMTAD
 70
     1
  9
$DIMZIN
 70
     8
  9
$DIMBLK
  1

  9
$DIMASO
 70
     1
  9
$DIMSHO
 70
     1
  9
$DIMPOST
  1

  9
$DIMAPOST
  1

  9
$DIMALT
 70
     0
  9
$DIMALTD
 70
     3
  9
$DIMALTF
 40
0.03937007874016
  9
$DIMLFAC
 40
1.0
  9
$DIMTOFL
 70
     1
  9
$DIMTVP
 40
0.0
  9
$DIMTIX
 70
     0
  9
$DIMSOXD
 70
     0
  9
$DIMSAH
 70
     0
  9
$DIMBLK1
  1

  9
$DIMBLK2
  1

  9
$DIMSTYLE
  2
ISO-25
  9
$DIMCLRD
 70
     0
  9
$DIMCLRE
 70
     0
  9
$DIMCLRT
 70
     0
  9
$DIMTFAC
 40
1.0
  9
$DIMGAP
 40
0.625
  9
$DIMJUST
 70
     0
  9
$DIMSD1
 70
     0
  9
$DIMSD2
 70
     0
  9
$DIMTOLJ
 70
     0
  9
$DIMTZIN
 70
     8
  9
$DIMALTZ
 70
     0
  9
$DIMALTTZ
 70
     0
  9
$DIMUPT
 70
     0
  9
$DIMDEC
 70
     2
  9
$DIMTDEC
 70
     2
  9
$DIMALTU
 70
     2
  9
$DIMALTTD
 70
     3
  9
$DIMTXSTY
  7
Standard
  9
$DIMAUNIT
 70
     0
  9
$DIMADEC
 70
     0
  9
$DIMALTRND
 40
0.0
  9
$DIMAZIN
 70
     0
  9
$DIMDSEP
 70
    44
  9
$DIMATFIT
 70
     3
  9
$DIMFRAC
 70
     0
  9
$DIMLDRBLK
  1

  9
$DIMLUNIT
 70
     2
  9
$DIMLWD
 70
    -2
  9
$DIMLWE
 70
    -2
  9
$DIMTMOVE
 70
     0
  9
$LUNITS
 70
     2
  9
$LUPREC
 70
     4
  9
$SKETCHINC
 40
1.0
  9
$FILLETRAD
 40
1.0
  9
$AUNITS
 70
     0
  9
$AUPREC
 70
     4
  9
$MENU
  1
.
  9
$ELEVATION
 40
0.0
  9
$PELEVATION
 40
0.0
  9
$THICKNESS
 40
0.0
  9
$LIMCHECK
 70
     0
  9
$CHAMFERA
 40
10.0
  9
$CHAMFERB
 40
10.0
  9
$CHAMFERC
 40
20.0
  9
$CHAMFERD
 40
0.0
  9
$SKPOLY
 70
     0
  9
$TDCREATE
 40
2453398.889365451
  9
$TDUCREATE
 40
2453398.847698785
  9
$TDUPDATE
 40
2456971.544098299
  9
$TDUUPDATE
 40
2456971.502431632
  9
$TDINDWG
 40
1336.8920928472
  9
$TDUSRTIMER
 40
1336.8920887963
  9
$USRTIMER
 70
     1
  9
$ANGBASE
 50
0.0
  9
$ANGDIR
 70
     0
  9
$PDMODE
 70
     0
  9
$PDSIZE
 40
0.0
  9
$PLINEWID
 40
0.0
  9
$SPLFRAME
 70
     0
  9
$SPLINETYPE
 70
     6
  9
$SPLINESEGS
 70
     8
  9
$HANDSEED
  5
12BF3
  9
$SURFTAB1
 70
     6
  9
$SURFTAB2
 70
     6
  9
$SURFTYPE
 70
     6
  9
$SURFU
 70
     6
  9
$SURFV
 70
     6
  9
$UCSBASE
  2

  9
$UCSNAME
  2

  9
$UCSORG
 10
0.0
 20
0.0
 30
0.0
  9
$UCSXDIR
 10
1.0
 20
0.0
 30
0.0
  9
$UCSYDIR
 10
0.0
 20
1.0
 30
0.0
  9
$UCSORTHOREF
  2

  9
$UCSORTHOVIEW
 70
     0
  9
$UCSORGTOP
 10
0.0
 20
0.0
 30
0.0
  9
$UCSORGBOTTOM
 10
0.0
 20
0.0
 30
0.0
  9
$UCSORGLEFT
 10
0.0
 20
0.0
 30
0.0
  9
$UCSORGRIGHT
 10
0.0
 20
0.0
 30
0.0
  9
$UCSORGFRONT
 10
0.0
 20
0.0
 30
0.0
  9
$UCSORGBACK
 10
0.0
 20
0.0
 30
0.0
  9
$PUCSBASE
  2

  9
$PUCSNAME
  2

  9
$PUCSORG
 10
0.0
 20
0.0
 30
0.0
  9
$PUCSXDIR
 10
1.0
 20
0.0
 30
0.0
  9
$PUCSYDIR
 10
0.0
 20
1.0
 30
0.0
  9
$PUCSORTHOREF
  2

  9
$PUCSORTHOVIEW
 70
     0
  9
$PUCSORGTOP
 10
0.0
 20
0.0
 30
0.0
  9
$PUCSORGBOTTOM
 10
0.0
 20
0.0
 30
0.0
  9
$PUCSORGLEFT
 10
0.0
 20
0.0
 30
0.0
  9
$PUCSORGRIGHT
 10
0.0
 20
0.0
 30
0.0
  9
$PUCSORGFRONT
 10
0.0
 20
0.0
 30
0.0
  9
$PUCSORGBACK
 10
0.0
 20
0.0
 30
0.0
  9
$USERI1
 70
     0
  9
$USERI2
 70
     0
  9
$USERI3
 70
     0
  9
$USERI4
 70
     0
  9
$USERI5
 70
     0
  9
$USERR1
 40
0.0
  9
$USERR2
 40
0.0
  9
$USERR3
 40
0.0
  9
$USERR4
 40
0.0
  9
$USERR5
 40
0.0
  9
$WORLDVIEW
 70
     1
  9
$SHADEDGE
 70
     3
  9
$SHADEDIF
 70
    70
  9
$TILEMODE
 70
     1
  9
$MAXACTVP
 70
    64
  9
$PINSBASE
 10
0.0
 20
0.0
 30
0.0
  9
$PLIMCHECK
 70
     0
  9
$PEXTMIN
 10
0.9500000270332876
 20
0.7999999523162833
 30
0.0
  9
$PEXTMAX
 10
8.550000243299589
 20
7.199999570846554
 30
0.0
  9
$PLIMMIN
 10
-0.7499995194082186
 20
-0.2499999962453767
  9
$PLIMMAX
 10
10.25000024029589
 20
8.249999763458731
  9
$UNITMODE
 70
     0
  9
$VISRETAIN
 70
     1
  9
$PLINEGEN
 70
     0
  9
$PSLTSCALE
 70
     1
  9
$TREEDEPTH
 70
  3020
  9
$CMLSTYLE
  2
Standard
  9
$CMLJUST
 70
     0
  9
$CMLSCALE
 40
20.0
  9
$PROXYGRAPHICS
 70
     1
  9
$MEASUREMENT
 70
     1
  9
$CELWEIGHT
370
    -1
  9
$ENDCAPS
280
     0
  9
$JOINSTYLE
280
     0
  9
$LWDISPLAY
290
     0
  9
$INSUNITS
 70
     4
  9
$HYPERLINKBASE
  1

  9
$STYLESHEET
  1

  9
$XEDIT
290
     1
  9
$CEPSNTYPE
380
     0
  9
$PSTYLEMODE
290
     1
  9
$FINGERPRINTGUID
  2
{FDEAD578-A652-11D2-9A35-0060089B3A3F}
  9
$VERSIONGUID
  2
{DE4E68A6-3339-47BC-9DF1-1707CABABDBD}
  9
$EXTNAMES
290
     1
  9
$PSVPSCALE
 40
0.0
  9
$OLESTARTUP
290
     0
  9
$SORTENTS
280
   127
  9
$INDEXCTL
280
     0
  9
$HIDETEXT
280
     1
  9
$XCLIPFRAME
290
     0
  9
$HALOGAP
280
     0
  9
$OBSCOLOR
 70
   257
  9
$OBSLTYPE
280
     0
  9
$INTERSECTIONDISPLAY
280
     0
  9
$INTERSECTIONCOLOR
 70
   257
  9
$DIMASSOC
280
     2
  9
$PROJECTNAME
  1

  0
ENDSEC
  0
SECTION
  2
CLASSES
  0
CLASS
  1
ACDBDICTIONARYWDFLT
  2
AcDbDictionaryWithDefault
  3
ObjectDBX Classes
 90
        0
 91
        1
280
     0
281
     0
  0
CLASS
  1
DICTIONARYVAR
  2
AcDbDictionaryVar
  3
ObjectDBX Classes
 90
        0
 91
        4
280
     0
281
     0
  0
CLASS
  1
SORTENTSTABLE
  2
AcDbSortentsTable
  3
ObjectDBX Classes
 90
        0
 91
        3
280
     0
281
     0
  0
CLASS
  1
ACDBPLACEHOLDER
  2
AcDbPlaceHolder
  3
ObjectDBX Classes
 90
        0
 91
        1
280
     0
281
     0
  0
CLASS
  1
LAYOUT
  2
AcDbLayout
  3
ObjectDBX Classes
 90
        0
 91
        3
280
     0
281
     0
  0
CLASS
  1
TCOPTIONALDATA
  2
TcOptionalData
  3
ExTcadCustObjs|Description: TurboCAD extension data object
 90
     4095
 91
      112
280
     1
281
     0
  0
CLASS
  1
DIMASSOC
  2
AcDbDimAssoc
  3
"AcDbDimAssoc|Product Desc:     AcDim ARX App For Dimension|Company:          Autodesk, Inc.|WEB Address:      www.autodesk.com"
 90
        0
 91
        0
280
     0
281
     0
  0
CLASS
  1
TABLESTYLE
  2
AcDbTableStyle
  3
ObjectDBX Classes
 90
     2047
 91
        1
280
     0
281
     0
  0
ENDSEC
  0
SECTION
  2
TABLES
  0
TABLE
  2
VPORT
  5
8
330
0
100
AcDbSymbolTable
 70
    14
  0
VPORT
  5
12BF2
330
8
100
AcDbSymbolTableRecord
100
AcDbViewportTableRecord
  2
*Active
 70
     0
 10
0.0
 20
0.0
 11
1.0
 21
1.0
 12
-1368.5
 22
15015.5
 13
0.0
 23
0.0
 14
0.25
 24
0.25
 15
0.25
 25
0.25
 16
0.0
 26
0.0
 36
1.0
 17
0.0
 27
0.0
 37
0.0
 40
79.0
 41
1.88244766505636
 42
50.0
 43
0.0
 44
0.0
 50
0.0
 51
0.0
 71
     0
 72
  1000
 73
     1
 74
     0
 75
     1
 76
     1
 77
     0
 78
     0
281
     0
 65
     1
110
0.0
120
0.0
130
0.0
111
1.0
121
0.0
131
0.0
112
0.0
122
1.0
132
0.0
 79
     0
146
0.0
  0
ENDTAB
  0
TABLE
  2
LTYPE
  5
5
330
0
100
AcDbSymbolTable
 70
     5
  0
LTYPE
  5
14
330
5
100
AcDbSymbolTableRecord
100
AcDbLinetypeTableRecord
  2
ByBlock
 70
     0
  3

 72
    65
 73
     0
 40
0.0
  0
LTYPE
  5
15
330
5
100
AcDbSymbolTableRecord
100
AcDbLinetypeTableRecord
  2
ByLayer
 70
     0
  3

 72
    65
 73
     0
 40
0.0
  0
LTYPE
  5
16
330
5
100
AcDbSymbolTableRecord
100
AcDbLinetypeTableRecord
  2
Continuous
 70
     0
  3
Solid line
 72
    65
 73
     0
 40
0.0
  0
LTYPE
  5
ED81
330
5
100
AcDbSymbolTableRecord
100
AcDbLinetypeTableRecord
  2
VERDECKT2
 70
     0
  3
VERDECKT2
 72
    65
 73
     2
 40
0.1875
 49
0.125
 74
     0
 49
-0.0625
 74
     0
  0
LTYPE
  5
EED5
330
5
100
AcDbSymbolTableRecord
100
AcDbLinetypeTableRecord
  2
RAND
 70
     0
  3
Rand
 72
    65
 73
     6
 40
1.75
 49
0.5
 74
     0
 49
-0.25
 74
     0
 49
0.5
 74
     0
 49
-0.25
 74
     0
 49
0.0
 74
     0
 49
-0.25
 74
     0
  0
LTYPE
  5
EED6
330
5
100
AcDbSymbolTableRecord
100
AcDbLinetypeTableRecord
  2
MITTE
 70
     0
  3
Mitte
 72
    65
 73
     4
 40
2.0
 49
1.25
 74
     0
 49
-0.25
 74
     0
 49
0.25
 74
     0
 49
-0.25
 74
     0
  0
LTYPE
  5
EED7
330
5
100
AcDbSymbolTableRecord
100
AcDbLinetypeTableRecord
  2
STRICHPUNKT
 70
     0
  3
Strichpunkt
 72
    65
 73
     4
 40
1.0
 49
0.5
 74
     0
 49
-0.25
 74
     0
 49
0.0
 74
     0
 49
-0.25
 74
     0
  0
ENDTAB
  0
TABLE
  2
LAYER
  5
2
102
{ACAD_XDICTIONARY
360
F3AF
102
}
330
0
100
AcDbSymbolTable
 70
    12
  0
LAYER
  5
10
330
2
100
AcDbSymbolTableRecord
100
AcDbLayerTableRecord
  2
0
 70
     0
 62
     7
  6
Continuous
370
    -3
390
F
  0
LAYER
  5
93
330
2
100
AcDbSymbolTableRecord
100
AcDbLayerTableRecord
  2
Alu hart 1500
 70
     0
 62
     5
  6
Continuous
370
    -3
390
F
  0
LAYER
  5
94
330
2
100
AcDbSymbolTableRecord
100
AcDbLayerTableRecord
  2
Hilfskonstruktion
 70
     0
 62
     3
  6
Continuous
370
    -3
390
F
  0
LAYER
  5
DD
330
2
100
AcDbSymbolTableRecord
100
AcDbLayerTableRecord
  2
Defpoints
 70
     0
 62
     7
  6
Continuous
290
     0
370
    -3
390
F
  0
LAYER
  5
251F
330
2
100
AcDbSymbolTableRecord
100
AcDbLayerTableRecord
  2
Carbon 1500
 70
     0
 62
    12
  6
Continuous
370
    -3
390
F
  0
LAYER
  5
B0B6
330
2
100
AcDbSymbolTableRecord
100
AcDbLayerTableRecord
  2
Edelstahl 1500
 70
     0
 62
   112
  6
Continuous
370
    -3
390
F
  0
LAYER
  5
B0B7
330
2
100
AcDbSymbolTableRecord
100
AcDbLayerTableRecord
  2
Messing 2000
 70
     0
 62
    84
  6
Continuous
370
    -3
390
F
  0
LAYER
  5
ED82
330
2
100
AcDbSymbolTableRecord
100
AcDbLayerTableRecord
  2
GEWINDE
 70
     0
 62
     2
  6
Continuous
370
    -3
390
F
  0
LAYER
  5
ED83
330
2
100
AcDbSymbolTableRecord
100
AcDbLayerTableRecord
  2
HILFSLINIE
 70
     0
 62
     6
  6
Continuous
370
    -3
390
F
  0
LAYER
  5
ED84
330
2
100
AcDbSymbolTableRecord
100
AcDbLayerTableRecord
  2
AUßEN
 70
     0
 62
     5
  6
Continuous
370
    -3
390
F
  0
LAYER
  5
1299D
330
2
100
AcDbSymbolTableRecord
100
AcDbLayerTableRecord
  2
GEOMETRIE
 70
     0
 62
     7
  6
Continuous
370
    -3
390
F
  0
LAYER
  5
1299E
330
2
100
AcDbSymbolTableRecord
100
AcDbLayerTableRecord
  2
ALU_HART_1500
 70
     0
 62
     5
  6
Continuous
370
    -3
390
F
  0
ENDTAB
  0
TABLE
  2
STYLE
  5
3
330
0
100
AcDbSymbolTable
 70
     1
  0
STYLE
  5
11
330
3
100
AcDbSymbolTableRecord
100
AcDbTextStyleTableRecord
  2
Standard
 70
     0
 40
0.0
 41
1.0
 50
0.0
 71
     0
 42
2.0
  3
txt
  4

  0
ENDTAB
  0
TABLE
  2
VIEW
  5
6
330
0
100
AcDbSymbolTable
 70
     0
  0
ENDTAB
  0
TABLE
  2
UCS
  5
7
330
0
100
AcDbSymbolTable
 70
     0
  0
ENDTAB
  0
TABLE
  2
APPID
  5
9
330
0
100
AcDbSymbolTable
 70
     4
  0
APPID
  5
12
330
9
100
AcDbSymbolTableRecord
100
AcDbRegAppTableRecord
  2
ACAD
 70
     0
  0
APPID
  5
F3AD
330
9
100
AcDbSymbolTableRecord
100
AcDbRegAppTableRecord
  2
ACAD_PSEXT
 70
     0
  0
APPID
  5
F3AE
330
9
100
AcDbSymbolTableRecord
100
AcDbRegAppTableRecord
  2
AcAecLayerStandard
 70
     0
  0
APPID
  5
11385
330
9
100
AcDbSymbolTableRecord
100
AcDbRegAppTableRecord
  2
ACAD_EXEMPT_FROM_CAD_STANDARDS
 70
     0
  0
ENDTAB
  0
TABLE
  2
DIMSTYLE
  5
A
330
0
100
AcDbSymbolTable
 70
     2
100
AcDbDimStyleTable
 71
     1
340
27
  0
DIMSTYLE
105
27
330
A
100
AcDbSymbolTableRecord
100
AcDbDimStyleTableRecord
  2
ISO-25
 70
     0
 41
2.5
 42
0.625
 43
3.75
 44
1.25
 73
     0
 74
     0
 77
     1
 78
     8
140
2.5
141
2.5
143
0.03937007874016
147
0.625
171
     3
172
     1
271
     2
272
     2
274
     3
278
    44
283
     0
284
     8
340
11
  0
DIMSTYLE
105
A5F6
330
A
100
AcDbSymbolTableRecord
100
AcDbDimStyleTableRecord
  2
STANDARD
 70
     0
340
11
  0
ENDTAB
  0
TABLE
  2
BLOCK_RECORD
  5
1
330
0
100
AcDbSymbolTable
 70
    14
  0
BLOCK_RECORD
  5
1F
102
{ACAD_XDICTIONARY
360
D7
102
}
330
1
100
AcDbSymbolTableRecord
100
AcDbBlockTableRecord
  2
*Model_Space
340
22
  0
BLOCK_RECORD
  5
55
330
1
100
AcDbSymbolTableRecord
100
AcDbBlockTableRecord
  2
*Paper_Space
340
56
  0
BLOCK_RECORD
  5
50
330
1
100
AcDbSymbolTableRecord
100
AcDbBlockTableRecord
  2
*Paper_Space0
340
51
  0
BLOCK_RECORD
  5
75A6
102
{ACAD_XDICTIONARY
360
75A8
102
}
330
1
100
AcDbSymbolTableRecord
100
AcDbBlockTableRecord
  2
A$C468B20B7
340
0
  0
BLOCK_RECORD
  5
EC17
330
1
100
AcDbSymbolTableRecord
100
AcDbBlockTableRecord
  2
BLOCK_H-TRÄGER
340
0
  0
BLOCK_RECORD
  5
EC35
330
1
100
AcDbSymbolTableRecord
100
AcDbBlockTableRecord
  2
BLOCK_GRUNDPLATTE
340
0
  0
BLOCK_RECORD
  5
EC7D
330
1
100
AcDbSymbolTableRecord
100
AcDbBlockTableRecord
  2
BLOCK_KAROHALTER
340
0
  0
BLOCK_RECORD
  5
EC8F
330
1
100
AcDbSymbolTableRecord
100
AcDbBlockTableRecord
  2
BLOCK_FEDERELEMENT
340
0
  0
BLOCK_RECORD
  5
ECDA
330
1
100
AcDbSymbolTableRecord
100
AcDbBlockTableRecord
  2
BLOCK_ACHSHALTER2
340
0
102
{BLKREFS
331
F2D8
331
F2D5
331
F2E1
331
F2DE
102
}
  0
BLOCK_RECORD
  5
ECF9
330
1
100
AcDbSymbolTableRecord
100
AcDbBlockTableRecord
  2
BLOCK_MOTORHALTER
340
0
102
{BLKREFS
331
F2D6
331
F2DF
102
}
  0
BLOCK_RECORD
  5
ED3F
330
1
100
AcDbSymbolTableRecord
100
AcDbBlockTableRecord
  2
BLOCK_LEITKIELHALTER
340
0
  0
BLOCK_RECORD
  5
ED62
330
1
100
AcDbSymbolTableRecord
100
AcDbBlockTableRecord
  2
BLOCK_ACHSHALTER
340
0
102
{BLKREFS
331
F2D7
331
F2D4
331
F2E0
331
F2DD
102
}
  0
BLOCK_RECORD
  5
EDEB
330
1
100
AcDbSymbolTableRecord
100
AcDbBlockTableRecord
  2
_OPEN30
340
0
  0
BLOCK_RECORD
  5
F2D3
102
{ACAD_XDICTIONARY
360
F2D9
102
}
330
1
100
AcDbSymbolTableRecord
100
AcDbBlockTableRecord
  2
A$C4D7E2568
340
0
  0
BLOCK_RECORD
  5
F2DC
102
{ACAD_XDICTIONARY
360
F2E2
102
}
330
1
100
AcDbSymbolTableRecord
100
AcDbBlockTableRecord
  2
A$C3E841553
340
0
  0
BLOCK_RECORD
  5
1068D
102
{ACAD_XDICTIONARY
360
10696
102
}
330
1
100
AcDbSymbolTableRecord
100
AcDbBlockTableRecord
  2
A$C6F0A671B
340
0
  0
ENDTAB
  0
ENDSEC
  0
SECTION
  2
BLOCKS
  0
BLOCK
  5
20
330
1F
100
AcDbEntity
  8
0
100
AcDbBlockBegin
  2
*Model_Space
 70
     0
 10
0.0
 20
0.0
 30
0.0
  3
*Model_Space
  1

  0
ENDBLK
  5
21
330
1F
100
AcDbEntity
  8
0
100
AcDbBlockEnd
  0
BLOCK
  5
57
330
55
100
AcDbEntity
 67
     1
  8
0
100
AcDbBlockBegin
  2
*Paper_Space
 70
     0
 10
0.0
 20
0.0
 30
0.0
  3
*Paper_Space
  1

  0
ENDBLK
  5
58
330
55
100
AcDbEntity
 67
     1
  8
0
100
AcDbBlockEnd
  0
BLOCK
  5
52
330
50
100
AcDbEntity
  8
0
100
AcDbBlockBegin
  2
*Paper_Space0
 70
     0
 10
0.0
 20
0.0
 30
0.0
  3
*Paper_Space0
  1

  0
VIEWPORT
  5
221
330
50
100
AcDbEntity
  8
0
100
AcDbViewport
 10
260.3500061035155
 20
220.6621251961903
 30
0.0
 40
933.5948476812491
 41
479.0686494936378
 69
     0
 12
260.3500061035155
 22
220.6621251961903
 13
0.0
 23
0.0
 14
10.0
 24
10.0
 15
10.0
 25
10.0
 16
0.0
 26
0.0
 36
1.0
 17
0.0
 27
0.0
 37
0.0
 42
50.0
 43
0.0
 44
0.0
 45
479.0686494936378
 50
0.0
 51
0.0
 72
  1000
 90
    32800
  1

281
     0
 71
     1
 74
     0
110
0.0
120
0.0
130
0.0
111
1.0
121
0.0
131
0.0
112
0.0
122
1.0
132
0.0
 79
     0
146
0.0
170
     0
  0
VIEWPORT
  5
223
330
50
100
AcDbEntity
  8
0
100
AcDbViewport
 10
260.3500003814697
 20
209.5499908924103
 30
0.0
 40
416.5600006103516
 41
335.2799854278564
 69
     0
 12
221.7189760292678
 22
147.5029914130026
 13
0.0
 23
0.0
 14
2.5
 24
2.5
 15
2.5
 25
2.5
 16
0.0
 26
0.0
 36
1.0
 17
0.0
 27
0.0
 37
0.0
 42
50.0
 43
0.0
 44
0.0
 45
337.6046176382546
 50
0.0
 51
0.0
 72
  1000
 90
    33632
  1

281
     0
 71
     1
 74
     0
110
0.0
120
0.0
130
0.0
111
1.0
121
0.0
131
0.0
112
0.0
122
1.0
132
0.0
 79
     0
146
0.0
170
     0
  0
ENDBLK
  5
53
330
50
100
AcDbEntity
  8
0
100
AcDbBlockEnd
  0
BLOCK
  5
75AA
330
75A6
100
AcDbEntity
  8
0
100
AcDbBlockBegin
  2
A$C468B20B7
 70
     0
 10
0.0
 20
0.0
 30
0.0
  3
A$C468B20B7
  1

  0
ARC
  5
75A7
330
75A6
100
AcDbEntity
  8
Alu hart 1500
100
AcDbCircle
 10
-0.000031831470551
 20
2.999994966901794
 30
0.0
 40
3.0
100
AcDbArc
 50
270.0
 51
0.0
  0
ENDBLK
  5
75AB
330
75A6
100
AcDbEntity
  8
0
100
AcDbBlockEnd
  0
BLOCK
  5
EC18
102
{ACAD_XDICTIONARY
360
EC19
102
}
330
EC17
100
AcDbEntity
  8
0
100
AcDbBlockBegin
  2
BLOCK_H-TRÄGER
 70
     0
 10
84.08770654251865
 20
138.7106166913589
 30
0.0
  3
BLOCK_H-TRÄGER
  1

  0
CIRCLE
  5
EC1B
102
{ACAD_XDICTIONARY
360
EC1C
102
}
330
EC17
100
AcDbEntity
  8
0
  6
Continuous
 62
     1
100
AcDbCircle
 10
107.0877065425186
 20
115.7106166913589
 30
0.0
 40
1.5
  0
CIRCLE
  5
EC1E
102
{ACAD_XDICTIONARY
360
EC1F
102
}
330
EC17
100
AcDbEntity
  8
0
  6
Continuous
 62
     1
100
AcDbCircle
 10
107.0877065425186
 20
161.7106166913589
 30
0.0
 40
1.5
  0
CIRCLE
  5
EC21
102
{ACAD_XDICTIONARY
360
EC22
102
}
330
EC17
100
AcDbEntity
  8
0
  6
Continuous
 62
     1
100
AcDbCircle
 10
61.08770654251864
 20
161.7106166913589
 30
0.0
 40
1.500004999999985
  0
CIRCLE
  5
EC24
102
{ACAD_XDICTIONARY
360
EC25
102
}
330
EC17
100
AcDbEntity
  8
0
  6
Continuous
 62
     1
100
AcDbCircle
 10
61.08770654251864
 20
115.7106166913589
 30
0.0
 40
1.5
  0
CIRCLE
  5
EC27
102
{ACAD_XDICTIONARY
360
EC28
102
}
330
EC17
100
AcDbEntity
  8
0
  6
Continuous
 62
     1
100
AcDbCircle
 10
68.08770654251865
 20
165.7106166913589
 30
0.0
 40
1.000009999999974
  0
CIRCLE
  5
EC2A
102
{ACAD_XDICTIONARY
360
EC2B
102
}
330
EC17
100
AcDbEntity
  8
0
  6
Continuous
 62
     1
100
AcDbCircle
 10
100.0877065425186
 20
165.7106166913589
 30
0.0
 40
1.0
  0
CIRCLE
  5
EC2D
102
{ACAD_XDICTIONARY
360
EC2E
102
}
330
EC17
100
AcDbEntity
  8
0
  6
Continuous
 62
     1
100
AcDbCircle
 10
100.0877065425186
 20
165.7106166913589
 30
0.0
 40
2.000004999999994
  0
CIRCLE
  5
EC30
102
{ACAD_XDICTIONARY
360
EC31
102
}
330
EC17
100
AcDbEntity
  8
0
  6
Continuous
 62
     1
100
AcDbCircle
 10
68.08770654251865
 20
165.7106166913589
 30
0.0
 40
2.0
  0
LWPOLYLINE
  5
EC33
330
EC17
100
AcDbEntity
  8
0
  6
Continuous
 62
     1
100
AcDbPolyline
 90
       96
 70
   129
 43
0.0
 10
105.5877065425186
 20
166.4606166913589
 42
1.0
 10
108.5877065425186
 20
166.4606166913589
 10
108.5877065425186
 20
169.2106166913589
 42
-0.4142135623730951
 10
109.0877065425186
 20
169.7106166913589
 10
110.5877065425186
 20
169.7106166913589
 42
-0.4142135623730951
 10
111.0877065425186
 20
169.2106166913589
 10
111.0877065425186
 20
157.2106166913589
 42
-0.4142135623730951
 10
110.5877065425186
 20
156.7106166913589
 10
109.0877065425186
 20
156.7106166913589
 42
1.0
 10
109.0877065425186
 20
154.7106166913589
 10
110.5877065425186
 20
154.7106166913589
 42
-0.4142135623730951
 10
111.0877065425186
 20
154.2106166913589
 10
111.0877065425186
 20
123.2106166913589
 42
-0.4142135623730951
 10
110.5877065425186
 20
122.7106166913589
 10
109.0877065425186
 20
122.7106166913589
 42
1.0
 10
109.0877065425186
 20
120.7106166913589
 10
110.5877065425186
 20
120.7106166913589
 42
-0.4142135623730951
 10
111.0877065425186
 20
120.2106166913589
 10
111.0877065425186
 20
120.2106166913589
 10
111.0877065425186
 20
108.2106166913589
 42
-0.4142135623730951
 10
110.5877065425186
 20
107.7106166913589
 10
110.5877065425186
 20
107.7106166913589
 10
109.0877065425186
 20
107.7106166913589
 42
-0.4142135623730951
 10
108.5877065425186
 20
108.2106166913589
 10
108.5877065425186
 20
108.2106166913589
 10
108.5877065425186
 20
110.9606166913589
 42
1.0
 10
105.5877065425186
 20
110.9606166913589
 10
105.5877065425186
 20
108.2106166913589
 42
-0.4142135623730951
 10
105.0877065425186
 20
107.7106166913589
 10
103.5877065425186
 20
107.7106166913589
 42
-0.4142135623730951
 10
103.0877065425186
 20
108.2106166913589
 10
103.0877065425186
 20
129.2106166913589
 42
0.4142135623730951
 10
102.5877065425186
 20
129.7106166913589
 10
65.58770654251865
 20
129.7106166913589
 42
0.4142135623730951
 10
65.08770654251865
 20
129.2106166913589
 10
65.08770654251865
 20
108.2106166913589
 42
-0.4142135623730951
 10
64.58770654251864
 20
107.7106166913589
 10
63.08770654251865
 20
107.7106166913589
 42
-0.4142135623730951
 10
62.58770654251865
 20
108.2106166913589
 10
62.58770654251865
 20
110.9606166913589
 42
1.0
 10
59.58770654251864
 20
110.9606166913589
 10
59.58770654251864
 20
108.2106166913589
 42
-0.4142135623730951
 10
59.08770654251864
 20
107.7106166913589
 10
59.08770654251864
 20
107.7106166913589
 10
57.58770654251865
 20
107.7106166913589
 42
-0.4142135623730951
 10
57.08770654251864
 20
108.2106166913589
 10
57.08770654251864
 20
108.2106166913589
 10
57.08770654251864
 20
120.2106166913589
 42
-0.4142135623730951
 10
57.58770654251865
 20
120.7106166913589
 10
57.58770654251865
 20
120.7106166913589
 10
59.08770654251864
 20
120.7106166913589
 42
1.0
 10
59.08770654251864
 20
122.7106166913589
 10
57.58770654251865
 20
122.7106166913589
 42
-0.4142135623730951
 10
57.08770654251864
 20
123.2106166913589
 10
57.08770654251864
 20
123.2106166913589
 10
57.08770654251864
 20
154.2106166913589
 42
-0.4142135623730951
 10
57.58770654251865
 20
154.7106166913589
 10
57.58770654251865
 20
154.7106166913589
 10
59.08770654251864
 20
154.7106166913589
 42
1.0
 10
59.08770654251864
 20
156.7106166913589
 10
57.58770654251865
 20
156.7106166913589
 42
-0.4142135623730951
 10
57.08770654251864
 20
157.2106166913589
 10
57.08770654251864
 20
157.2106166913589
 10
57.08770654251864
 20
169.2106166913589
 42
-0.4142135623730951
 10
57.58770654251865
 20
169.7106166913589
 10
57.58770654251865
 20
169.7106166913589
 10
59.08770654251864
 20
169.710616691359
 42
-0.4142135623730951
 10
59.58770654251864
 20
169.210616691359
 10
59.58770654251864
 20
169.210616691359
 10
59.58770654251864
 20
166.4606166913589
 42
1.0
 10
62.58770654251865
 20
166.4606166913589
 10
62.58770654251865
 20
169.2106166913589
 42
-0.4142135623730951
 10
63.08770654251865
 20
169.7106166913589
 10
64.08770654251864
 20
169.7106166913589
 10
68.88059976133209
 20
169.7106166913589
 42
-0.1989123673796587
 10
69.23415315192537
 20
169.5641700819522
 10
71.94125993311192
 20
166.8570633007656
 42
-0.1989123673796223
 10
72.08770654251866
 20
166.5035099101723
 10
72.08770654251866
 20
162.2106166913589
 42
-0.4142135623730951
 10
71.58770654251866
 20
161.7106166913589
 10
65.58770654251865
 20
161.7106166913589
 42
0.4142135623730951
 10
65.08770654251865
 20
161.2106166913589
 10
65.08770654251865
 20
138.2106166913589
 42
0.4142135623730951
 10
65.58770654251865
 20
137.7106166913589
 10
102.5877065425186
 20
137.7106166913589
 42
0.4142135623730951
 10
103.0877065425186
 20
138.2106166913589
 10
103.0877065425186
 20
161.2106166913589
 42
0.4142135623730951
 10
102.5877065425186
 20
161.7106166913589
 10
96.58770654251863
 20
161.7106166913589
 42
-0.4142135623730951
 10
96.08770654251863
 20
162.2106166913589
 10
96.08770654251863
 20
166.5035099101723
 42
-0.1989123673796529
 10
96.23415315192536
 20
166.8570633007656
 10
98.94125993311192
 20
169.5641700819522
 42
-0.1989123673796587
 10
99.29481332370521
 20
169.7106166913589
 10
105.0877065425186
 20
169.7106166913589
 42
-0.4142135623730951
 10
105.5877065425186
 20
169.2106166913589
  0
ENDBLK
  5
EC34
330
EC17
100
AcDbEntity
  8
0
100
AcDbBlockEnd
  0
BLOCK
  5
EC36
102
{ACAD_XDICTIONARY
360
EC37
102
}
330
EC35
100
AcDbEntity
  8
0
100
AcDbBlockBegin
  2
BLOCK_GRUNDPLATTE
 70
     0
 10
163.4993981927367
 20
170.6722091772172
 30
0.0
  3
BLOCK_GRUNDPLATTE
  1

  0
CIRCLE
  5
EC39
102
{ACAD_XDICTIONARY
360
EC3A
102
}
330
EC35
100
AcDbEntity
  8
0
  6
Continuous
 62
     7
100
AcDbCircle
 10
153.9993981927367
 20
128.6722091772172
 30
0.0
 40
1.0
  0
CIRCLE
  5
EC3C
102
{ACAD_XDICTIONARY
360
EC3D
102
}
330
EC35
100
AcDbEntity
  8
0
  6
Continuous
 62
     7
100
AcDbCircle
 10
178.9993981927367
 20
128.6722091772172
 30
0.0
 40
1.0
  0
CIRCLE
  5
EC3F
102
{ACAD_XDICTIONARY
360
EC40
102
}
330
EC35
100
AcDbEntity
  8
0
  6
Continuous
 62
     7
100
AcDbCircle
 10
171.7993981927368
 20
131.6722091772172
 30
0.0
 40
1.0
  0
CIRCLE
  5
EC42
102
{ACAD_XDICTIONARY
360
EC43
102
}
330
EC35
100
AcDbEntity
  8
0
  6
Continuous
 62
     7
100
AcDbCircle
 10
161.1993981927366
 20
131.6722091772172
 30
0.0
 40
1.0
  0
CIRCLE
  5
EC45
102
{ACAD_XDICTIONARY
360
EC46
102
}
330
EC35
100
AcDbEntity
  8
0
  6
Continuous
 62
     7
100
AcDbCircle
 10
186.4993981927367
 20
146.6722091772172
 30
0.0
 40
1.0
  0
CIRCLE
  5
EC48
102
{ACAD_XDICTIONARY
360
EC49
102
}
330
EC35
100
AcDbEntity
  8
0
  6
Continuous
 62
     7
100
AcDbCircle
 10
140.4993981927367
 20
146.6722091772172
 30
0.0
 40
1.0
  0
CIRCLE
  5
EC4B
102
{ACAD_XDICTIONARY
360
EC4C
102
}
330
EC35
100
AcDbEntity
  8
0
  6
Continuous
 62
     7
100
AcDbCircle
 10
140.4993981927367
 20
151.6722091772171
 30
0.0
 40
1.0
  0
CIRCLE
  5
EC4E
102
{ACAD_XDICTIONARY
360
EC4F
102
}
330
EC35
100
AcDbEntity
  8
0
  6
Continuous
 62
     7
100
AcDbCircle
 10
186.4993981927367
 20
151.6722091772171
 30
0.0
 40
1.0
  0
CIRCLE
  5
EC51
102
{ACAD_XDICTIONARY
360
EC52
102
}
330
EC35
100
AcDbEntity
  8
0
  6
Continuous
 62
     7
100
AcDbCircle
 10
163.4993981927367
 20
178.6722091772172
 30
0.0
 40
1.0
  0
CIRCLE
  5
EC54
102
{ACAD_XDICTIONARY
360
EC55
102
}
330
EC35
100
AcDbEntity
  8
0
  6
Continuous
 62
     7
100
AcDbCircle
 10
140.4993981927367
 20
197.6722091772172
 30
0.0
 40
1.0
  0
CIRCLE
  5
EC57
102
{ACAD_XDICTIONARY
360
EC58
102
}
330
EC35
100
AcDbEntity
  8
0
  6
Continuous
 62
     7
100
AcDbCircle
 10
186.4993981927367
 20
197.6722091772172
 30
0.0
 40
1.0
  0
CIRCLE
  5
EC5A
102
{ACAD_XDICTIONARY
360
EC5B
102
}
330
EC35
100
AcDbEntity
  8
0
  6
Continuous
 62
     7
100
AcDbCircle
 10
186.4993981927367
 20
202.6722091772172
 30
0.0
 40
1.0
  0
CIRCLE
  5
EC5D
102
{ACAD_XDICTIONARY
360
EC5E
102
}
330
EC35
100
AcDbEntity
  8
0
  6
Continuous
 62
     7
100
AcDbCircle
 10
140.4993981927367
 20
202.6722091772172
 30
0.0
 40
1.0
  0
CIRCLE
  5
EC60
102
{ACAD_XDICTIONARY
360
EC61
102
}
330
EC35
100
AcDbEntity
  8
0
  6
Continuous
 62
     7
100
AcDbCircle
 10
186.4993981927367
 20
214.6722091772172
 30
0.0
 40
1.0
  0
CIRCLE
  5
EC63
102
{ACAD_XDICTIONARY
360
EC64
102
}
330
EC35
100
AcDbEntity
  8
0
  6
Continuous
 62
     7
100
AcDbCircle
 10
180.4993981927367
 20
214.6722091772172
 30
0.0
 40
1.0
  0
CIRCLE
  5
EC66
102
{ACAD_XDICTIONARY
360
EC67
102
}
330
EC35
100
AcDbEntity
  8
0
  6
Continuous
 62
     7
100
AcDbCircle
 10
146.4993981927367
 20
214.6722091772172
 30
0.0
 40
1.0
  0
CIRCLE
  5
EC69
102
{ACAD_XDICTIONARY
360
EC6A
102
}
330
EC35
100
AcDbEntity
  8
0
  6
Continuous
 62
     7
100
AcDbCircle
 10
140.4993981927367
 20
214.6722091772172
 30
0.0
 40
1.0
  0
LWPOLYLINE
  5
EC6C
102
{ACAD_XDICTIONARY
360
EC6D
102
}
330
EC35
100
AcDbEntity
  8
0
  6
Continuous
 62
     7
100
AcDbPolyline
 90
        8
 70
   129
 43
0.0
 10
160.4993981927367
 20
180.6722091772171
 42
-0.4142135623730951
 10
159.4993981927367
 20
179.6722091772172
 10
145.4993981927367
 20
179.6722091772172
 42
-0.4142135623730951
 10
144.4993981927367
 20
180.6722091772171
 10
144.4993981927367
 20
209.257995614844
 42
-0.6681786379193079
 10
146.2065049739233
 20
209.9651023960306
 10
160.2065049739233
 20
195.9651023960305
 42
-0.1989123673796405
 10
160.4993981927367
 20
195.257995614844
  0
LWPOLYLINE
  5
EC6F
102
{ACAD_XDICTIONARY
360
EC70
102
}
330
EC35
100
AcDbEntity
  8
0
  6
Continuous
 62
     7
100
AcDbPolyline
 90
        8
 70
   129
 43
0.0
 10
181.4993981927367
 20
179.6722091772172
 10
167.4993981927367
 20
179.6722091772172
 42
-0.4142135623730951
 10
166.4993981927367
 20
180.6722091772171
 10
166.4993981927367
 20
195.257995614844
 42
-0.1989123673796405
 10
166.7922914115501
 20
195.9651023960305
 10
180.7922914115501
 20
209.9651023960306
 42
-0.6681786379192977
 10
182.4993981927367
 20
209.257995614844
 10
182.4993981927367
 20
180.6722091772171
 42
-0.4142135623730951
  0
LWPOLYLINE
  5
EC72
102
{ACAD_XDICTIONARY
360
EC73
102
}
330
EC35
100
AcDbEntity
  8
0
  6
Continuous
 62
     7
100
AcDbPolyline
 90
        8
 70
   129
 43
0.0
 10
178.4993981927367
 20
153.1722091772172
 10
178.4993981927367
 20
136.6722091772172
 42
-0.4142135623730951
 10
177.4993981927367
 20
135.6722091772172
 10
153.9993981927367
 20
135.6722091772172
 42
-0.4142135623730951
 10
152.9993981927367
 20
136.6722091772172
 10
152.9993981927367
 20
153.1722091772172
 42
-0.4142135623730951
 10
153.9993981927367
 20
154.1722091772172
 10
177.4993981927367
 20
154.1722091772172
 42
-0.4142135623730951
  0
CIRCLE
  5
EC75
102
{ACAD_XDICTIONARY
360
EC76
102
}
330
EC35
100
AcDbEntity
  8
0
  6
Continuous
 62
     7
100
AcDbCircle
 10
148.1993981927367
 20
154.2722091772171
 30
0.0
 40
1.0
  0
CIRCLE
  5
EC78
102
{ACAD_XDICTIONARY
360
EC79
102
}
330
EC35
100
AcDbEntity
  8
0
  6
Continuous
 62
     7
100
AcDbCircle
 10
157.1993981927367
 20
162.2722091772171
 30
0.0
 40
1.0
  0
LWPOLYLINE
  5
EC7B
330
EC35
100
AcDbEntity
  8
0
  6
Continuous
 62
     7
100
AcDbPolyline
 90
       57
 70
   129
 43
0.0
 10
138.4993981927367
 20
154.6722091772172
 42
1.0
 10
138.4993981927367
 20
160.6722091772172
 10
137.4993981927367
 20
160.6722091772172
 42
-0.4142135623730951
 10
136.4993981927367
 20
161.6722091772172
 10
136.4993981927367
 20
161.6722091772172
 10
136.4993981927367
 20
187.6722091772172
 42
-0.4142135623730951
 10
137.4993981927367
 20
188.6722091772172
 10
137.4993981927367
 20
188.6722091772172
 10
138.4993981927367
 20
188.6722091772172
 42
1.0
 10
138.4993981927367
 20
194.6722091772172
 10
137.4993981927367
 20
194.6722091772172
 42
-0.4142135623730951
 10
136.4993981927367
 20
195.6722091772172
 10
136.4993981927367
 20
195.6722091772172
 10
136.4993981927367
 20
217.6722091772172
 42
-0.4142135623730951
 10
137.4993981927367
 20
218.6722091772172
 10
137.4993981927367
 20
218.6722091772172
 10
148.0851846303637
 20
218.6722091772172
 42
-0.1989123673796329
 10
148.7922914115501
 20
218.3793159584037
 10
148.7922914115501
 20
218.3793159584037
 10
162.7922914115501
 20
204.3793159584037
 42
0.4142135623730894
 10
164.2065049739233
 20
204.3793159584037
 10
164.2065049739233
 20
204.3793159584037
 10
178.2065049739233
 20
218.3793159584037
 42
-0.1989123673796529
 10
178.9136117551099
 20
218.6722091772172
 10
178.9136117551099
 20
218.6722091772172
 10
189.4993981927367
 20
218.6722091772172
 42
-0.4142135623730951
 10
190.4993981927367
 20
217.6722091772172
 10
190.4993981927367
 20
217.6722091772172
 10
190.4993981927367
 20
195.6722091772172
 42
-0.4142135623730951
 10
189.4993981927367
 20
194.6722091772172
 10
189.4993981927367
 20
194.6722091772172
 10
188.4993981927367
 20
194.6722091772172
 42
1.0
 10
188.4993981927367
 20
188.6722091772172
 10
189.4993981927367
 20
188.6722091772172
 42
-0.4142135623730951
 10
190.4993981927367
 20
187.6722091772172
 10
190.4993981927367
 20
187.6722091772172
 10
190.4993981927367
 20
161.6722091772172
 42
-0.4142135623730951
 10
189.4993981927367
 20
160.6722091772172
 10
189.4993981927367
 20
160.6722091772172
 10
188.4993981927367
 20
160.6722091772172
 42
1.0
 10
188.4993981927367
 20
154.6722091772172
 10
194.4993981927367
 20
154.6722091772172
 42
-0.4142135623730951
 10
195.4993981927367
 20
153.6722091772172
 10
195.4993981927367
 20
142.1722091772172
 42
-0.4142135623730951
 10
194.4993981927367
 20
141.1722091772172
 10
185.4993981927367
 20
141.1722091772172
 42
0.4142135623730951
 10
184.4993981927365
 20
140.1722091772171
 10
184.4993981927365
 20
123.6722091772172
 42
-0.4142135623730951
 10
183.4993981927367
 20
122.6722091772172
 10
147.4993981927367
 20
122.6722091772172
 42
-0.4142135623730951
 10
146.4993981927367
 20
123.6722091772172
 10
146.4993981927367
 20
140.1722091772171
 42
0.4142135623730951
 10
145.4993981927367
 20
141.1722091772172
 10
132.4993981927367
 20
141.1722091772172
 42
-0.4142135623730951
 10
131.4993981927367
 20
142.1722091772172
 10
131.4993981927367
 20
153.6722091772172
 42
-0.4142135623730951
 10
132.4993981927367
 20
154.6722091772172
  0
ENDBLK
  5
EC7C
330
EC35
100
AcDbEntity
  8
0
100
AcDbBlockEnd
  0
BLOCK
  5
EC7E
102
{ACAD_XDICTIONARY
360
EC7F
102
}
330
EC7D
100
AcDbEntity
  8
0
100
AcDbBlockBegin
  2
BLOCK_KAROHALTER
 70
     0
 10
335.3553712619163
 20
143.3281311541666
 30
0.0
  3
BLOCK_KAROHALTER
  1

  0
CIRCLE
  5
EC81
102
{ACAD_XDICTIONARY
360
EC82
102
}
330
EC7D
100
AcDbEntity
  8
0
  6
Continuous
 62
     3
100
AcDbCircle
 10
360.2448233402305
 20
126.2175832324809
 30
0.0
 40
1.0
  0
CIRCLE
  5
EC84
102
{ACAD_XDICTIONARY
360
EC85
102
}
330
EC7D
100
AcDbEntity
  8
0
  6
Continuous
 62
     3
100
AcDbCircle
 10
310.2448233402305
 20
126.2175832324809
 30
0.0
 40
1.0
  0
CIRCLE
  5
EC87
102
{ACAD_XDICTIONARY
360
EC88
102
}
330
EC7D
100
AcDbEntity
  8
0
  6
Continuous
 62
     3
100
AcDbCircle
 10
310.2448233402305
 20
160.2175832324808
 30
0.0
 40
1.0
  0
CIRCLE
  5
EC8A
102
{ACAD_XDICTIONARY
360
EC8B
102
}
330
EC7D
100
AcDbEntity
  8
0
  6
Continuous
 62
     3
100
AcDbCircle
 10
360.2448233402305
 20
160.2175832324808
 30
0.0
 40
1.0
  0
LWPOLYLINE
  5
EC8D
330
EC7D
100
AcDbEntity
  8
0
  6
Continuous
 62
     3
100
AcDbPolyline
 90
       28
 70
   129
 43
0.0
 10
313.3553712619163
 20
142.3281311541666
 10
313.3553712619163
 20
163.3281311541666
 10
307.8553712619163
 20
163.3281311541666
 10
307.8553712619163
 20
174.3281311541666
 10
300.3553712619163
 20
174.3281311541666
 10
300.3553712619163
 20
157.3281311541666
 10
306.3553712619163
 20
157.3281311541666
 10
306.3553712619163
 20
129.3256601203377
 10
300.3553712619163
 20
129.3256601203377
 10
300.3553712619163
 20
112.3281311541666
 10
307.8553712619163
 20
112.3281311541666
 10
307.8553712619163
 20
123.3281311541666
 10
313.3553712619163
 20
123.3281311541666
 10
313.3553712619163
 20
134.3281311541666
 10
357.3553712619163
 20
134.3281311541666
 10
357.3553712619163
 20
123.3281311541666
 10
362.8553712619163
 20
123.3281311541666
 10
362.8553712619163
 20
112.3281311541666
 10
370.3553712619163
 20
112.3281311541666
 10
370.3553712619163
 20
129.3256601203377
 10
364.3553712619163
 20
129.3256601203377
 10
364.3553712619163
 20
157.3281311541666
 10
370.3553712619163
 20
157.3281311541666
 10
370.3553712619163
 20
174.3281311541666
 10
362.8553712619163
 20
174.3281311541666
 10
362.8553712619163
 20
163.3281311541666
 10
357.3553712619163
 20
163.3281311541666
 10
357.3553712619163
 20
142.3281311541666
  0
ENDBLK
  5
EC8E
330
EC7D
100
AcDbEntity
  8
0
100
AcDbBlockEnd
  0
BLOCK
  5
EC90
102
{ACAD_XDICTIONARY
360
EC91
102
}
330
EC8F
100
AcDbEntity
  8
0
100
AcDbBlockBegin
  2
BLOCK_FEDERELEMENT
 70
     0
 10
251.1516589439555
 20
178.2714837553227
 30
0.0
  3
BLOCK_FEDERELEMENT
  1

  0
CIRCLE
  5
EC93
102
{ACAD_XDICTIONARY
360
EC94
102
}
330
EC8F
100
AcDbEntity
  8
0
  6
Continuous
 62
     5
100
AcDbCircle
 10
268.1516589439555
 20
185.2714837553227
 30
0.0
 40
1.5
  0
CIRCLE
  5
EC96
102
{ACAD_XDICTIONARY
360
EC97
102
}
330
EC8F
100
AcDbEntity
  8
0
  6
Continuous
 62
     5
100
AcDbCircle
 10
234.1516589439555
 20
185.2714837553227
 30
0.0
 40
1.5
  0
CIRCLE
  5
EC99
102
{ACAD_XDICTIONARY
360
EC9A
102
}
330
EC8F
100
AcDbEntity
  8
0
  6
Continuous
 62
     5
100
AcDbCircle
 10
274.1516589439555
 20
185.2714837553227
 30
0.0
 40
1.5
  0
CIRCLE
  5
EC9C
102
{ACAD_XDICTIONARY
360
EC9D
102
}
330
EC8F
100
AcDbEntity
  8
0
  6
Continuous
 62
     5
100
AcDbCircle
 10
228.1516589439555
 20
185.2714837553227
 30
0.0
 40
1.5
  0
CIRCLE
  5
EC9F
102
{ACAD_XDICTIONARY
360
ECA0
102
}
330
EC8F
100
AcDbEntity
  8
0
  6
Continuous
 62
     5
100
AcDbCircle
 10
251.1516589439555
 20
186.2714837553227
 30
0.0
 40
1.0
  0
CIRCLE
  5
ECA2
102
{ACAD_XDICTIONARY
360
ECA3
102
}
330
EC8F
100
AcDbEntity
  8
0
  6
Continuous
 62
     5
100
AcDbCircle
 10
259.6516589439555
 20
199.2714837553227
 30
0.0
 40
1.0
  0
ARC
  5
ECA5
102
{ACAD_XDICTIONARY
360
ECA6
102
}
330
EC8F
100
AcDbEntity
  8
0
  6
Continuous
 62
     5
100
AcDbCircle
 10
264.1516589439555
 20
206.2714837553227
 30
0.0
 40
1.0
100
AcDbArc
 50
0.0
 51
180.0
  0
ARC
  5
ECA8
102
{ACAD_XDICTIONARY
360
ECA9
102
}
330
EC8F
100
AcDbEntity
  8
0
  6
Continuous
 62
     5
100
AcDbCircle
 10
264.1516589439555
 20
196.2714837553227
 30
0.0
 40
1.0
100
AcDbArc
 50
180.0
 51
0.0
  0
LINE
  5
ECAB
102
{ACAD_XDICTIONARY
360
ECAC
102
}
330
EC8F
100
AcDbEntity
  8
0
  6
Continuous
 62
     5
100
AcDbLine
 10
263.1516589439555
 20
206.2714837553227
 30
0.0
 11
263.1516589439555
 21
196.2714837553227
 31
0.0
  0
LINE
  5
ECAE
102
{ACAD_XDICTIONARY
360
ECAF
102
}
330
EC8F
100
AcDbEntity
  8
0
  6
Continuous
 62
     5
100
AcDbLine
 10
265.1516589439555
 20
196.2714837553227
 30
0.0
 11
265.1516589439555
 21
206.2714837553227
 31
0.0
  0
ARC
  5
ECB1
102
{ACAD_XDICTIONARY
360
ECB2
102
}
330
EC8F
100
AcDbEntity
  8
0
  6
Continuous
 62
     5
100
AcDbCircle
 10
271.3516589439555
 20
199.2714837553227
 30
0.0
 40
1.0
100
AcDbArc
 50
180.0
 51
0.0
  0
ARC
  5
ECB4
102
{ACAD_XDICTIONARY
360
ECB5
102
}
330
EC8F
100
AcDbEntity
  8
0
  6
Continuous
 62
     5
100
AcDbCircle
 10
271.3516589439555
 20
203.2714837553227
 30
0.0
 40
1.0
100
AcDbArc
 50
0.0
 51
180.0
  0
LINE
  5
ECB7
102
{ACAD_XDICTIONARY
360
ECB8
102
}
330
EC8F
100
AcDbEntity
  8
0
  6
Continuous
 62
     5
100
AcDbLine
 10
270.3516589439555
 20
199.2714837553227
 30
0.0
 11
270.3516589439555
 21
203.2714837553227
 31
0.0
  0
LINE
  5
ECBA
102
{ACAD_XDICTIONARY
360
ECBB
102
}
330
EC8F
100
AcDbEntity
  8
0
  6
Continuous
 62
     5
100
AcDbLine
 10
272.3516589439555
 20
203.2714837553227
 30
0.0
 11
272.3516589439555
 21
199.2714837553227
 31
0.0
  0
ARC
  5
ECBD
102
{ACAD_XDICTIONARY
360
ECBE
102
}
330
EC8F
100
AcDbEntity
  8
0
  6
Continuous
 62
     5
100
AcDbCircle
 10
238.1516589439555
 20
196.2714837553227
 30
0.0
 40
1.0
100
AcDbArc
 50
180.0
 51
0.0
  0
ARC
  5
ECC0
102
{ACAD_XDICTIONARY
360
ECC1
102
}
330
EC8F
100
AcDbEntity
  8
0
  6
Continuous
 62
     5
100
AcDbCircle
 10
238.1516589439555
 20
206.2714837553227
 30
0.0
 40
1.0
100
AcDbArc
 50
0.0
 51
180.0
  0
LINE
  5
ECC3
102
{ACAD_XDICTIONARY
360
ECC4
102
}
330
EC8F
100
AcDbEntity
  8
0
  6
Continuous
 62
     5
100
AcDbLine
 10
237.1516589439555
 20
196.2714837553227
 30
0.0
 11
237.1516589439555
 21
206.2714837553227
 31
0.0
  0
LINE
  5
ECC6
102
{ACAD_XDICTIONARY
360
ECC7
102
}
330
EC8F
100
AcDbEntity
  8
0
  6
Continuous
 62
     5
100
AcDbLine
 10
239.1516589439555
 20
206.2714837553227
 30
0.0
 11
239.1516589439555
 21
196.2714837553227
 31
0.0
  0
ARC
  5
ECC9
102
{ACAD_XDICTIONARY
360
ECCA
102
}
330
EC8F
100
AcDbEntity
  8
0
  6
Continuous
 62
     5
100
AcDbCircle
 10
230.9516589439555
 20
203.2714837553227
 30
0.0
 40
1.0
100
AcDbArc
 50
0.0
 51
180.0
  0
ARC
  5
ECCC
102
{ACAD_XDICTIONARY
360
ECCD
102
}
330
EC8F
100
AcDbEntity
  8
0
  6
Continuous
 62
     5
100
AcDbCircle
 10
230.9516589439555
 20
199.2714837553227
 30
0.0
 40
1.0
100
AcDbArc
 50
180.0
 51
0.0
  0
LINE
  5
ECCF
102
{ACAD_XDICTIONARY
360
ECD0
102
}
330
EC8F
100
AcDbEntity
  8
0
  6
Continuous
 62
     5
100
AcDbLine
 10
229.9516589439555
 20
203.2714837553227
 30
0.0
 11
229.9516589439555
 21
199.2714837553227
 31
0.0
  0
LINE
  5
ECD2
102
{ACAD_XDICTIONARY
360
ECD3
102
}
330
EC8F
100
AcDbEntity
  8
0
  6
Continuous
 62
     5
100
AcDbLine
 10
231.9516589439555
 20
199.2714837553227
 30
0.0
 11
231.9516589439555
 21
203.2714837553227
 31
0.0
  0
CIRCLE
  5
ECD5
102
{ACAD_XDICTIONARY
360
ECD6
102
}
330
EC8F
100
AcDbEntity
  8
0
  6
Continuous
 62
     5
100
AcDbCircle
 10
242.6516589439555
 20
199.2714837553227
 30
0.0
 40
1.0
  0
LWPOLYLINE
  5
ECD8
330
EC8F
100
AcDbEntity
  8
0
  6
Continuous
 62
     5
100
AcDbPolyline
 90
       48
 70
   129
 43
0.0
 10
252.6516589439555
 20
149.5214837553227
 42
1.0
 10
249.6516589439555
 20
149.5214837553227
 10
249.6516589439555
 20
146.7714837553227
 42
-0.4142135623730951
 10
249.1516589439555
 20
146.2714837553227
 10
247.6516589439555
 20
146.2714837553227
 42
-0.4142135623730951
 10
247.1516589439555
 20
146.7714837553227
 10
247.1516589439555
 20
167.064376974136
 42
0.1989123673796467
 10
247.0052123345488
 20
167.4179303647294
 10
233.2981055533622
 20
181.125037145916
 42
0.1989123673796587
 10
232.944552162769
 20
181.2714837553227
 10
224.6516589439555
 20
181.2714837553227
 42
-0.4142135623730951
 10
224.1516589439555
 20
181.7714837553227
 10
224.1516589439555
 20
188.7714837553227
 42
-0.4142135623730951
 10
224.6516589439555
 20
189.2714837553227
 10
226.6516589439555
 20
189.2714837553227
 42
0.4142135623730951
 10
227.1516589439555
 20
189.7714837553227
 10
227.1516589439555
 20
209.7714837553227
 42
-0.4142135623730951
 10
227.6516589439555
 20
210.2714837553227
 10
243.6516589439555
 20
210.2714837553227
 42
-0.4142135623730951
 10
244.1516589439555
 20
209.7714837553227
 10
244.1516589439555
 20
207.7714837553227
 42
0.4142135623730951
 10
244.6516589439555
 20
207.2714837553227
 42
-0.4142135623730951
 10
245.1516589439555
 20
206.7714837553227
 10
245.1516589439555
 20
189.7714837553227
 42
0.4142135623730951
 10
245.6516589439555
 20
189.2714837553227
 10
256.6516589439555
 20
189.2714837553227
 42
0.4142135623730951
 10
257.1516589439555
 20
189.7714837553227
 10
257.1516589439555
 20
206.7714837553227
 42
-0.4142135623730951
 10
257.6516589439555
 20
207.2714837553227
 42
0.4142135623730951
 10
258.1516589439555
 20
207.7714837553227
 10
258.1516589439555
 20
209.7714837553227
 42
-0.4142135623730951
 10
258.6516589439555
 20
210.2714837553227
 10
274.6516589439555
 20
210.2714837553227
 42
-0.4142135623730951
 10
275.1516589439555
 20
209.7714837553227
 10
275.1516589439555
 20
189.7714837553227
 42
0.4142135623730951
 10
275.6516589439555
 20
189.2714837553227
 10
277.6516589439555
 20
189.2714837553227
 42
-0.4142135623730951
 10
278.1516589439555
 20
188.7714837553227
 10
278.1516589439555
 20
181.7714837553227
 42
-0.4142135623730951
 10
277.6516589439555
 20
181.2714837553227
 10
269.358765725142
 20
181.2714837553227
 42
0.1989123673795192
 10
269.0052123345488
 20
181.125037145916
 10
255.2981055533622
 20
167.4179303647295
 42
0.1989123673796467
 10
255.1516589439555
 20
167.0643769741362
 10
255.1516589439555
 20
146.7714837553227
 42
-0.4142135623730951
 10
254.6516589439555
 20
146.2714837553227
 10
253.1516589439555
 20
146.2714837553227
 42
-0.4142135623730951
 10
252.6516589439555
 20
146.7714837553227
  0
ENDBLK
  5
ECD9
330
EC8F
100
AcDbEntity
  8
0
100
AcDbBlockEnd
  0
BLOCK
  5
ECDB
102
{ACAD_XDICTIONARY
360
ECDC
102
}
330
ECDA
100
AcDbEntity
  8
0
100
AcDbBlockBegin
  2
BLOCK_ACHSHALTER2
 70
     0
 10
260.4847966956618
 20
216.2024254611583
 30
0.0
  3
BLOCK_ACHSHALTER2
  1

  0
CIRCLE
  5
ECDE
330
ECDA
100
AcDbEntity
  8
GEWINDE
100
AcDbCircle
 10
261.9847966956618
 20
211.8524254611583
 30
0.0
 40
0.799999999999983
  0
CIRCLE
  5
ECDF
330
ECDA
100
AcDbEntity
  8
GEWINDE
100
AcDbCircle
 10
258.9847966956618
 20
219.0524254611583
 30
0.0
 40
0.799999999999983
  0
LINE
  5
ECE0
102
{ACAD_XDICTIONARY
360
ECE1
102
}
330
ECDA
100
AcDbEntity
  8
AUßEN
100
AcDbLine
 10
263.7847966956619
 20
211.8524254611583
 30
0.0
 11
263.7847966956619
 21
222.3524254611583
 31
0.0
  0
LINE
  5
ECE3
102
{ACAD_XDICTIONARY
360
ECE4
102
}
330
ECDA
100
AcDbEntity
  8
AUßEN
100
AcDbLine
 10
257.1847966956618
 20
222.3524254611583
 30
0.0
 11
257.1847966956618
 21
219.0524254611583
 31
0.0
  0
ARC
  5
ECE6
102
{ACAD_XDICTIONARY
360
ECE7
102
}
330
ECDA
100
AcDbEntity
  8
AUßEN
100
AcDbCircle
 10
261.9847966956618
 20
211.8524254611583
 30
0.0
 40
1.799999999999968
100
AcDbArc
 50
180.0
 51
0.0
  0
ARC
  5
ECE9
102
{ACAD_XDICTIONARY
360
ECEA
102
}
330
ECDA
100
AcDbEntity
  8
AUßEN
100
AcDbCircle
 10
258.9847966956618
 20
219.0524254611583
 30
0.0
 40
1.799999999999981
100
AcDbArc
 50
180.0
 51
260.4059317731371
  0
ARC
  5
ECEC
102
{ACAD_XDICTIONARY
360
ECED
102
}
330
ECDA
100
AcDbEntity
  8
AUßEN
100
AcDbCircle
 10
258.3847966956617
 20
215.5027775912985
 30
0.0
 40
1.800000000000039
100
AcDbArc
 50
0.0
 51
80.40593177313771
  0
LINE
  5
ECEF
102
{ACAD_XDICTIONARY
360
ECF0
102
}
330
ECDA
100
AcDbEntity
  8
AUßEN
100
AcDbLine
 10
260.1847966956618
 20
211.8524254611583
 30
0.0
 11
260.1847966956618
 21
215.5027775912985
 31
0.0
  0
LINE
  5
ECF2
102
{ACAD_XDICTIONARY
360
ECF3
102
}
330
ECDA
100
AcDbEntity
  8
AUßEN
100
AcDbLine
 10
257.1847966956618
 20
222.3524254611583
 30
0.0
 11
263.7847966956619
 21
222.3524254611583
 31
0.0
  0
LINE
  5
ECF5
102
{ACAD_XDICTIONARY
360
ECF6
102
}
330
ECDA
100
AcDbEntity
  8
HILFSLINIE
  6
VERDECKT2
100
AcDbLine
 10
257.1847966956618
 20
220.7524254611584
 30
0.0
 11
263.7847966956619
 21
220.7524254611584
 31
0.0
  0
ENDBLK
  5
ECF8
330
ECDA
100
AcDbEntity
  8
0
100
AcDbBlockEnd
  0
BLOCK
  5
ECFA
102
{ACAD_XDICTIONARY
360
ECFB
102
}
330
ECF9
100
AcDbEntity
  8
0
100
AcDbBlockBegin
  2
BLOCK_MOTORHALTER
 70
     0
 10
264.4647061633472
 20
175.7755646187586
 30
0.0
  3
BLOCK_MOTORHALTER
  1

  0
LINE
  5
ECFD
102
{ACAD_XDICTIONARY
360
ECFE
102
}
330
ECF9
100
AcDbEntity
  8
AUßEN
100
AcDbLine
 10
250.6147061633472
 20
174.7755646187586
 30
0.0
 11
272.3147061633472
 21
174.7755646187586
 31
0.0
  0
LINE
  5
ED00
102
{ACAD_XDICTIONARY
360
ED01
102
}
330
ECF9
100
AcDbEntity
  8
HILFSLINIE
  6
VERDECKT2
100
AcDbLine
 10
250.6147061633472
 20
176.2755646187585
 30
0.0
 11
278.3147061633472
 21
176.2755646187585
 31
0.0
  0
LINE
  5
ED03
102
{ACAD_XDICTIONARY
360
ED04
102
}
330
ECF9
100
AcDbEntity
  8
AUßEN
100
AcDbLine
 10
251.6147061633472
 20
178.4755646187586
 30
0.0
 11
266.8147061633472
 21
178.4755646187586
 31
0.0
  0
CIRCLE
  5
ED06
330
ECF9
100
AcDbEntity
  8
GEWINDE
100
AcDbCircle
 10
270.3147061633472
 20
180.2255646187586
 30
0.0
 40
0.8000000000000396
  0
LINE
  5
ED07
102
{ACAD_XDICTIONARY
360
ED08
102
}
330
ECF9
100
AcDbEntity
  8
AUßEN
100
AcDbLine
 10
267.8147061633472
 20
181.2755646187586
 30
0.0
 11
267.8147061633472
 21
179.4755646187586
 31
0.0
  0
LINE
  5
ED0A
102
{ACAD_XDICTIONARY
360
ED0B
102
}
330
ECF9
100
AcDbEntity
  8
AUßEN
100
AcDbLine
 10
272.8147061633472
 20
181.2755646187586
 30
0.0
 11
272.8147061633472
 21
179.4755646187586
 31
0.0
  0
LINE
  5
ED0D
102
{ACAD_XDICTIONARY
360
ED0E
102
}
330
ECF9
100
AcDbEntity
  8
AUßEN
100
AcDbLine
 10
278.3147061633472
 20
177.4755646187586
 30
0.0
 11
278.3147061633472
 21
170.2755646187586
 31
0.0
  0
LINE
  5
ED10
102
{ACAD_XDICTIONARY
360
ED11
102
}
330
ECF9
100
AcDbEntity
  8
AUßEN
100
AcDbLine
 10
276.3147061633472
 20
168.2755646187586
 30
0.0
 11
275.3147061633472
 21
168.2755646187586
 31
0.0
  0
LINE
  5
ED13
102
{ACAD_XDICTIONARY
360
ED14
102
}
330
ECF9
100
AcDbEntity
  8
AUßEN
100
AcDbLine
 10
273.3147061633472
 20
170.2755646187586
 30
0.0
 11
273.3147061633472
 21
173.7755646187586
 31
0.0
  0
ARC
  5
ED16
102
{ACAD_XDICTIONARY
360
ED17
102
}
330
ECF9
100
AcDbEntity
  8
AUßEN
100
AcDbCircle
 10
272.3147061633472
 20
173.7755646187586
 30
0.0
 40
1.0
100
AcDbArc
 50
0.0
 51
90.0
  0
ARC
  5
ED19
102
{ACAD_XDICTIONARY
360
ED1A
102
}
330
ECF9
100
AcDbEntity
  8
AUßEN
100
AcDbCircle
 10
275.3147061633472
 20
170.2755646187586
 30
0.0
 40
2.0
100
AcDbArc
 50
180.0
 51
270.0
  0
ARC
  5
ED1C
102
{ACAD_XDICTIONARY
360
ED1D
102
}
330
ECF9
100
AcDbEntity
  8
AUßEN
100
AcDbCircle
 10
276.3147061633472
 20
170.2755646187586
 30
0.0
 40
2.0
100
AcDbArc
 50
270.0
 51
0.0
  0
CIRCLE
  5
ED1F
330
ECF9
100
AcDbEntity
  8
GEWINDE
100
AcDbCircle
 10
275.8147061633472
 20
171.2755646187586
 30
0.0
 40
0.8000000000000396
  0
ARC
  5
ED20
102
{ACAD_XDICTIONARY
360
ED21
102
}
330
ECF9
100
AcDbEntity
  8
AUßEN
100
AcDbCircle
 10
266.8147061633472
 20
179.4755646187586
 30
0.0
 40
1.0
100
AcDbArc
 50
270.0
 51
0.0
  0
LINE
  5
ED23
102
{ACAD_XDICTIONARY
360
ED24
102
}
330
ECF9
100
AcDbEntity
  8
AUßEN
100
AcDbLine
 10
270.8147061633472
 20
183.2755646187585
 30
0.0
 11
269.8147061633472
 21
183.2755646187585
 31
0.0
  0
ARC
  5
ED26
102
{ACAD_XDICTIONARY
360
ED27
102
}
330
ECF9
100
AcDbEntity
  8
AUßEN
100
AcDbCircle
 10
269.8147061633472
 20
181.2755646187586
 30
0.0
 40
2.0
100
AcDbArc
 50
90.0
 51
180.0
  0
ARC
  5
ED29
102
{ACAD_XDICTIONARY
360
ED2A
102
}
330
ECF9
100
AcDbEntity
  8
AUßEN
100
AcDbCircle
 10
270.8147061633472
 20
181.2755646187586
 30
0.0
 40
2.0
100
AcDbArc
 50
0.0
 51
90.0
  0
ARC
  5
ED2C
102
{ACAD_XDICTIONARY
360
ED2D
102
}
330
ECF9
100
AcDbEntity
  8
AUßEN
100
AcDbCircle
 10
251.6147061633472
 20
177.4755646187586
 30
0.0
 40
1.0
100
AcDbArc
 50
90.0
 51
180.0
  0
LINE
  5
ED2F
102
{ACAD_XDICTIONARY
360
ED30
102
}
330
ECF9
100
AcDbEntity
  8
AUßEN
100
AcDbLine
 10
273.8147061633472
 20
178.4755646187586
 30
0.0
 11
277.3147061633472
 21
178.4755646187586
 31
0.0
  0
ARC
  5
ED32
102
{ACAD_XDICTIONARY
360
ED33
102
}
330
ECF9
100
AcDbEntity
  8
AUßEN
100
AcDbCircle
 10
273.8147061633472
 20
179.4755646187586
 30
0.0
 40
1.0
100
AcDbArc
 50
180.0
 51
270.0
  0
ARC
  5
ED35
102
{ACAD_XDICTIONARY
360
ED36
102
}
330
ECF9
100
AcDbEntity
  8
AUßEN
100
AcDbCircle
 10
277.3147061633472
 20
177.4755646187586
 30
0.0
 40
1.0
100
AcDbArc
 50
0.0
 51
90.0
  0
LINE
  5
ED38
102
{ACAD_XDICTIONARY
360
ED39
102
}
330
ECF9
100
AcDbEntity
  8
AUßEN
100
AcDbLine
 10
250.6147061633472
 20
177.4755646187586
 30
0.0
 11
250.6147061633472
 21
174.7755646187586
 31
0.0
  0
LINE
  5
ED3B
102
{ACAD_XDICTIONARY
360
ED3C
102
}
330
ECF9
100
AcDbEntity
  8
HILFSLINIE
  6
VERDECKT2
100
AcDbLine
 10
250.6147061633472
 20
174.7755646187586
 30
0.0
 11
278.3147061633472
 21
174.7755646187586
 31
0.0
  0
ENDBLK
  5
ED3E
330
ECF9
100
AcDbEntity
  8
0
100
AcDbBlockEnd
  0
BLOCK
  5
ED40
102
{ACAD_XDICTIONARY
360
ED41
102
}
330
ED3F
100
AcDbEntity
  8
0
100
AcDbBlockBegin
  2
BLOCK_LEITKIELHALTER
 70
     0
 10
243.3230304593996
 20
166.276807454745
 30
0.0
  3
BLOCK_LEITKIELHALTER
  1

  0
CIRCLE
  5
ED43
102
{ACAD_XDICTIONARY
360
ED44
102
}
330
ED3F
100
AcDbEntity
  8
0
  6
Continuous
 62
     7
100
AcDbCircle
 10
243.3230304593996
 20
159.2768074547451
 30
0.0
 40
1.0
  0
CIRCLE
  5
ED46
102
{ACAD_XDICTIONARY
360
ED47
102
}
330
ED3F
100
AcDbEntity
  8
0
  6
Continuous
 62
     7
100
AcDbCircle
 10
234.8230304593996
 20
172.2768074547451
 30
0.0
 40
1.0
  0
CIRCLE
  5
ED49
102
{ACAD_XDICTIONARY
360
ED4A
102
}
330
ED3F
100
AcDbEntity
  8
0
  6
Continuous
 62
     7
100
AcDbCircle
 10
251.8230304593996
 20
172.2768074547451
 30
0.0
 40
1.0
  0
LWPOLYLINE
  5
ED4C
102
{ACAD_XDICTIONARY
360
ED4D
102
}
330
ED3F
100
AcDbEntity
  8
0
  6
Continuous
 62
     7
100
AcDbPolyline
 90
       12
 70
   129
 43
0.0
 10
238.6438795753348
 20
156.2768074547451
 10
248.0021813434644
 20
156.2768074547451
 42
0.2932563254157305
 10
248.4567137549116
 20
156.5684800994985
 10
253.5502249280825
 20
167.6815953864167
 42
0.1078559001696284
 10
253.8230304593996
 20
168.9315595178964
 10
253.8230304593996
 20
175.7768074547451
 42
0.4142135623730951
 10
253.3230304593996
 20
176.2768074547451
 10
233.3230304593996
 20
176.2768074547451
 42
0.4142135623730951
 10
232.8230304593996
 20
175.7768074547451
 10
232.8230304593996
 20
168.9315595178964
 42
0.1078559001696284
 10
233.0958359907168
 20
167.6815953864167
 10
238.1893471638876
 20
156.5684800994985
 42
0.2932563254157305
  0
CIRCLE
  5
ED4F
102
{ACAD_XDICTIONARY
360
ED50
102
}
330
ED3F
100
AcDbEntity
  8
0
  6
Continuous
 62
     7
100
AcDbCircle
 10
240.8230304593996
 20
171.2768074547451
 30
0.0
 40
1.0
  0
CIRCLE
  5
ED52
102
{ACAD_XDICTIONARY
360
ED53
102
}
330
ED3F
100
AcDbEntity
  8
0
  6
Continuous
 62
     7
100
AcDbCircle
 10
240.8230304593996
 20
168.2768074547451
 30
0.0
 40
1.0
  0
CIRCLE
  5
ED55
102
{ACAD_XDICTIONARY
360
ED56
102
}
330
ED3F
100
AcDbEntity
  8
0
  6
Continuous
 62
     7
100
AcDbCircle
 10
240.8230304593996
 20
165.2768074547451
 30
0.0
 40
1.0
  0
CIRCLE
  5
ED58
102
{ACAD_XDICTIONARY
360
ED59
102
}
330
ED3F
100
AcDbEntity
  8
0
  6
Continuous
 62
     7
100
AcDbCircle
 10
245.8230304593996
 20
165.2768074547451
 30
0.0
 40
1.0
  0
CIRCLE
  5
ED5B
102
{ACAD_XDICTIONARY
360
ED5C
102
}
330
ED3F
100
AcDbEntity
  8
0
  6
Continuous
 62
     7
100
AcDbCircle
 10
245.8230304593996
 20
168.2768074547451
 30
0.0
 40
1.0
  0
CIRCLE
  5
ED5E
102
{ACAD_XDICTIONARY
360
ED5F
102
}
330
ED3F
100
AcDbEntity
  8
0
  6
Continuous
 62
     7
100
AcDbCircle
 10
245.8230304593996
 20
171.2768074547451
 30
0.0
 40
1.0
  0
ENDBLK
  5
ED61
330
ED3F
100
AcDbEntity
  8
0
100
AcDbBlockEnd
  0
BLOCK
  5
ED63
102
{ACAD_XDICTIONARY
360
ED64
102
}
330
ED62
100
AcDbEntity
  8
0
100
AcDbBlockBegin
  2
BLOCK_ACHSHALTER
 70
     0
 10
260.4847966956618
 20
197.7973975408167
 30
0.0
  3
BLOCK_ACHSHALTER
  1

  0
CIRCLE
  5
ED66
330
ED62
100
AcDbEntity
  8
GEWINDE
100
AcDbCircle
 10
261.9847966956618
 20
202.1473975408167
 30
0.0
 40
0.799999999999983
  0
CIRCLE
  5
ED67
330
ED62
100
AcDbEntity
  8
GEWINDE
100
AcDbCircle
 10
258.9847966956618
 20
194.9473975408167
 30
0.0
 40
0.799999999999983
  0
LINE
  5
ED68
102
{ACAD_XDICTIONARY
360
ED69
102
}
330
ED62
100
AcDbEntity
  8
AUßEN
100
AcDbLine
 10
263.7847966956619
 20
202.1473975408167
 30
0.0
 11
263.7847966956619
 21
191.6473975408166
 31
0.0
  0
LINE
  5
ED6B
102
{ACAD_XDICTIONARY
360
ED6C
102
}
330
ED62
100
AcDbEntity
  8
AUßEN
100
AcDbLine
 10
257.1847966956618
 20
191.6473975408166
 30
0.0
 11
257.1847966956618
 21
194.9473975408167
 31
0.0
  0
ARC
  5
ED6E
102
{ACAD_XDICTIONARY
360
ED6F
102
}
330
ED62
100
AcDbEntity
  8
AUßEN
100
AcDbCircle
 10
261.9847966956618
 20
202.1473975408167
 30
0.0
 40
1.799999999999968
100
AcDbArc
 50
0.0
 51
180.0
  0
ARC
  5
ED71
102
{ACAD_XDICTIONARY
360
ED72
102
}
330
ED62
100
AcDbEntity
  8
AUßEN
100
AcDbCircle
 10
258.9847966956618
 20
194.9473975408167
 30
0.0
 40
1.800000000000006
100
AcDbArc
 50
99.59406822686256
 51
180.0
  0
ARC
  5
ED74
102
{ACAD_XDICTIONARY
360
ED75
102
}
330
ED62
100
AcDbEntity
  8
AUßEN
100
AcDbCircle
 10
258.3847966956617
 20
198.4970454106765
 30
0.0
 40
1.800000000000034
100
AcDbArc
 50
279.5940682268622
 51
0.0
  0
LINE
  5
ED77
102
{ACAD_XDICTIONARY
360
ED78
102
}
330
ED62
100
AcDbEntity
  8
AUßEN
100
AcDbLine
 10
260.1847966956618
 20
202.1473975408167
 30
0.0
 11
260.1847966956618
 21
198.4970454106765
 31
0.0
  0
LINE
  5
ED7A
102
{ACAD_XDICTIONARY
360
ED7B
102
}
330
ED62
100
AcDbEntity
  8
AUßEN
100
AcDbLine
 10
257.1847966956618
 20
191.6473975408166
 30
0.0
 11
263.7847966956619
 21
191.6473975408166
 31
0.0
  0
LINE
  5
ED7D
102
{ACAD_XDICTIONARY
360
ED7E
102
}
330
ED62
100
AcDbEntity
  8
HILFSLINIE
  6
VERDECKT2
100
AcDbLine
 10
257.1847966956618
 20
193.2473975408166
 30
0.0
 11
263.7847966956619
 21
193.2473975408166
 31
0.0
  0
ENDBLK
  5
ED80
330
ED62
100
AcDbEntity
  8
0
100
AcDbBlockEnd
  0
BLOCK
  5
EDEC
330
EDEB
100
AcDbEntity
  8
0
100
AcDbBlockBegin
  2
_OPEN30
 70
     0
 10
0.0
 20
0.0
 30
0.0
  3
_OPEN30
  1

  0
LINE
  5
EDED
330
EDEB
100
AcDbEntity
  8
0
  6
ByBlock
 62
     0
100
AcDbLine
 10
-1.0
 20
0.267949
 30
0.0
 11
0.0
 21
0.0
 31
0.0
  0
LINE
  5
EDEE
330
EDEB
100
AcDbEntity
  8
0
  6
ByBlock
 62
     0
100
AcDbLine
 10
0.0
 20
0.0
 30
0.0
 11
-1.0
 21
-0.267949
 31
0.0
  0
LINE
  5
EDEF
330
EDEB
100
AcDbEntity
  8
0
  6
ByBlock
 62
     0
100
AcDbLine
 10
0.0
 20
0.0
 30
0.0
 11
-1.0
 21
0.0
 31
0.0
  0
ENDBLK
  5
EDF0
330
EDEB
100
AcDbEntity
  8
0
100
AcDbBlockEnd
  0
BLOCK
  5
F2DA
330
F2D3
100
AcDbEntity
  8
0
100
AcDbBlockBegin
  2
A$C4D7E2568
 70
     0
 10
0.0
 20
0.0
 30
0.0
  3
A$C4D7E2568
  1

  0
INSERT
  5
F2D4
330
F2D3
100
AcDbEntity
  8
0
100
AcDbBlockReference
  2
BLOCK_ACHSHALTER
 10
36.22242914883786
 20
3.300000086093092
 30
0.0
 50
89.99999993267687
  0
INSERT
  5
F2D5
330
F2D3
100
AcDbEntity
  8
0
100
AcDbBlockReference
  2
BLOCK_ACHSHALTER2
 10
16.90756052356675
 20
3.300000086093092
 30
0.0
 50
90.0
  0
INSERT
  5
F2D6
330
F2D3
100
AcDbEntity
  8
0
100
AcDbBlockReference
  2
BLOCK_MOTORHALTER
 10
12.71435821142813
 20
21.570381588983
 30
0.0
 50
90.0
  0
INSERT
  5
F2D7
330
F2D3
100
AcDbEntity
  8
0
100
AcDbBlockReference
  2
BLOCK_ACHSHALTER
 10
6.149999829925262
 20
100.2178844791566
 30
0.0
 50
270.0
  0
INSERT
  5
F2D8
330
F2D3
100
AcDbEntity
  8
0
100
AcDbBlockReference
  2
BLOCK_ACHSHALTER2
 10
40.84375705535875
 20
100.167965404012
 30
0.0
 50
270.0
  0
ENDBLK
  5
F2DB
330
F2D3
100
AcDbEntity
  8
0
100
AcDbBlockEnd
  0
BLOCK
  5
F2E3
330
F2DC
100
AcDbEntity
  8
0
100
AcDbBlockBegin
  2
A$C3E841553
 70
     0
 10
0.0
 20
0.0
 30
0.0
  3
A$C3E841553
  1

  0
INSERT
  5
F2DD
330
F2DC
100
AcDbEntity
  8
0
100
AcDbBlockReference
  2
BLOCK_ACHSHALTER
 10
36.22242914883786
 20
3.300000086093092
 30
0.0
 50
89.99999993267687
  0
INSERT
  5
F2DE
330
F2DC
100
AcDbEntity
  8
0
100
AcDbBlockReference
  2
BLOCK_ACHSHALTER2
 10
16.90756052356675
 20
3.300000086093092
 30
0.0
 50
90.0
  0
INSERT
  5
F2DF
330
F2DC
100
AcDbEntity
  8
0
100
AcDbBlockReference
  2
BLOCK_MOTORHALTER
 10
12.71435821142813
 20
21.570381588983
 30
0.0
 50
90.0
  0
INSERT
  5
F2E0
330
F2DC
100
AcDbEntity
  8
0
100
AcDbBlockReference
  2
BLOCK_ACHSHALTER
 10
6.149999829925262
 20
100.2178844791566
 30
0.0
 50
270.0
  0
INSERT
  5
F2E1
330
F2DC
100
AcDbEntity
  8
0
100
AcDbBlockReference
  2
BLOCK_ACHSHALTER2
 10
40.84375705535875
 20
100.167965404012
 30
0.0
 50
270.0
  0
ENDBLK
  5
F2E4
330
F2DC
100
AcDbEntity
  8
0
100
AcDbBlockEnd
  0
BLOCK
  5
10698
330
1068D
100
AcDbEntity
  8
0
100
AcDbBlockBegin
  2
A$C6F0A671B
 70
     0
 10
0.0
 20
0.0
 30
0.0
  3
A$C6F0A671B
  1

  0
LINE
  5
1068E
330
1068D
100
AcDbEntity
  8
Messing 2000
100
AcDbLine
 10
0.0629754427192211
 20
14.64886360918717
 30
0.0
 11
5.312975442718424
 21
0.6488636091853551
 31
0.0
  0
LINE
  5
1068F
330
1068D
100
AcDbEntity
  8
Messing 2000
100
AcDbLine
 10
6.249304620287488
 20
-0.0000129492254928
 30
0.0
 11
8.113303683958747
 21
-0.0000129492236738
 31
0.0
  0
LINE
  5
10690
330
1068D
100
AcDbEntity
  8
Messing 2000
100
AcDbLine
 10
9.049632861527811
 20
1.351110492365477
 30
0.0
 11
3.799632861528948
 21
15.35111049236366
 31
0.0
  0
LINE
  5
10691
330
1068D
100
AcDbEntity
  8
Messing 2000
100
AcDbLine
 10
2.863303683959884
 20
15.99998705077451
 30
0.0
 11
0.9993046202882851
 21
15.99998705077632
 31
0.0
  0
ARC
  5
10692
330
1068D
100
AcDbEntity
  8
Messing 2000
100
AcDbCircle
 10
0.9993046202882851
 20
14.99998705077632
 30
0.0
 40
1.0
100
AcDbArc
 50
90.0
 51
200.5560452196239
  0
ARC
  5
10693
330
1068D
100
AcDbEntity
  8
Messing 2000
100
AcDbCircle
 10
2.863303683959884
 20
14.99998705077451
 30
0.0
 40
1.0
100
AcDbArc
 50
20.55604521962387
 51
90.0
  0
ARC
  5
10694
330
1068D
100
AcDbEntity
  8
Messing 2000
100
AcDbCircle
 10
8.113303683958747
 20
0.9999870507763262
 30
0.0
 40
1.0
100
AcDbArc
 50
270.0
 51
20.55604521962387
  0
ARC
  5
10695
330
1068D
100
AcDbEntity
  8
Messing 2000
100
AcDbCircle
 10
6.249304620287488
 20
0.9999870507745072
 30
0.0
 40
1.0
100
AcDbArc
 50
200.5560452196239
 51
270.0
  0
ENDBLK
  5
10699
330
1068D
100
AcDbEntity
  8
0
100
AcDbBlockEnd
  0
ENDSEC
  0
SECTION
  2
ENTITIES
  0
LINE
  5
3F3E
330
1F
100
AcDbEntity
  8
Carbon 1500
100
AcDbLine
 10
-1007.5
 20
29474.5
 30
0.0
 11
-1007.5
 21
29478.5
 31
0.0
  0
LINE
  5
3F3F
330
1F
100
AcDbEntity
  8
Carbon 1500
100
AcDbLine
 10
-1006.0
 20
29474.5
 30
0.0
 11
-1006.0
 21
29478.5
 31
0.0
  0
ARC
  5
3F40
330
1F
100
AcDbEntity
  8
Carbon 1500
100
AcDbCircle
 10
-1006.75
 20
29478.5
 30
0.0
 40
0.75
100
AcDbArc
 50
0.0
 51
180.0
  0
LINE
  5
4667
330
1F
100
AcDbEntity
  8
Hilfskonstruktion
100
AcDbLine
 10
-608.4999999999999
 20
29344.5
 30
0.0
 11
-608.4999999999999
 21
29338.5
 31
0.0
  0
ARC
  5
127C6
102
{ACAD_REACTORS
330
12BF1
102
}
330
1F
100
AcDbEntity
  8
Edelstahl 1500
100
AcDbCircle
 10
-1410.000000000001
 20
15009.250028436
 30
0.0
 40
1.0
100
AcDbArc
 50
270.0
 51
0.0
  0
ARC
  5
127C7
102
{ACAD_REACTORS
330
12BF1
102
}
330
1F
100
AcDbEntity
  8
Edelstahl 1500
100
AcDbCircle
 10
-1410.000000000001
 20
15018.250028436
 30
0.0
 40
1.0
100
AcDbArc
 50
0.0
 51
90.0
  0
LINE
  5
127C8
102
{ACAD_REACTORS
330
12BF1
102
}
330
1F
100
AcDbEntity
  8
Edelstahl 1500
100
AcDbLine
 10
-1419.0
 20
15019.250028436
 30
0.0
 11
-1425.915158524
 21
15019.250028436
 31
0.0
  0
LINE
  5
127C9
102
{ACAD_REACTORS
330
12BF1
102
}
330
1F
100
AcDbEntity
  8
Edelstahl 1500
100
AcDbLine
 10
-1410.0
 20
15019.250028436
 30
0.0
 11
-1419.0
 21
15019.250028436
 31
0.0
  0
CIRCLE
  5
127CA
102
{ACAD_REACTORS
330
12BF1
102
}
330
1F
100
AcDbEntity
  8
Edelstahl 1500
  6
Continuous
100
AcDbCircle
 10
-1412.000000000001
 20
15013.7499790192
 30
0.0
 40
0.85
  0
CIRCLE
  5
127CB
102
{ACAD_REACTORS
330
12BF1
102
}
330
1F
100
AcDbEntity
  8
Edelstahl 1500
  6
Continuous
100
AcDbCircle
 10
-1417.000000000001
 20
15013.7499790192
 30
0.0
 40
0.85
  0
LINE
  5
127CC
102
{ACAD_REACTORS
330
12BF1
102
}
330
1F
100
AcDbEntity
  8
Edelstahl 1500
100
AcDbLine
 10
-1409.0
 20
15009.250028436
 30
0.0
 11
-1409.0
 21
15018.250028436
 31
0.0
  0
LINE
  5
127CD
102
{ACAD_REACTORS
330
12BF1
102
}
330
1F
100
AcDbEntity
  8
Edelstahl 1500
100
AcDbLine
 10
-1410.0
 20
15008.250028436
 30
0.0
 11
-1425.915158524
 21
15008.250028436
 31
0.0
  0
ARC
  5
127CE
102
{ACAD_REACTORS
330
12BF1
102
}
330
1F
100
AcDbEntity
  8
Edelstahl 1500
100
AcDbCircle
 10
-1426.500043888699
 20
15013.7499752407
 30
0.0
 40
4.45
100
AcDbArc
 50
116.8726473966304
 51
243.1274575342934
  0
LINE
  5
127CF
102
{ACAD_REACTORS
330
12BF1
102
}
330
1F
100
AcDbEntity
  8
Edelstahl 1500
100
AcDbLine
 10
-1428.5114763125
 20
15009.7805118507
 30
0.0
 11
-1425.915158524
 21
15008.250028436
 31
0.0
  0
LINE
  5
127D0
102
{ACAD_REACTORS
330
12BF1
102
}
330
1F
100
AcDbEntity
  8
Edelstahl 1500
100
AcDbLine
 10
-1425.915158524
 20
15019.249940137
 30
0.0
 11
-1428.511483582199
 21
15017.7194349469
 31
0.0
  0
CIRCLE
  5
127D1
102
{ACAD_REACTORS
330
12BF1
102
}
330
1F
100
AcDbEntity
  8
Edelstahl 1500
100
AcDbCircle
 10
-1426.500043888699
 20
15013.7499752407
 30
0.0
 40
2.399999999999999
  0
ARC
  5
12877
102
{ACAD_REACTORS
330
12998
102
}
330
1F
100
AcDbEntity
  8
Alu hart 1500
 62
     5
100
AcDbCircle
 10
-1337.250000000001
 20
14981.75
 30
0.0
 40
1.0
100
AcDbArc
 50
270.0
 51
0.0
  0
ARC
  5
12878
102
{ACAD_REACTORS
330
12998
102
}
330
1F
100
AcDbEntity
  8
Alu hart 1500
 62
     5
100
AcDbCircle
 10
-1337.250000000001
 20
14989.75
 30
0.0
 40
1.0
100
AcDbArc
 50
0.0
 51
90.0
  0
ARC
  5
12879
102
{ACAD_REACTORS
330
12998
102
}
330
1F
100
AcDbEntity
  8
Alu hart 1500
 62
     5
100
AcDbCircle
 10
-1392.000000000001
 20
14989.75
 30
0.0
 40
1.0
100
AcDbArc
 50
90.0
 51
180.0
  0
ARC
  5
1287A
102
{ACAD_REACTORS
330
12998
102
}
330
1F
100
AcDbEntity
  8
Alu hart 1500
 62
     5
100
AcDbCircle
 10
-1392.000000000001
 20
14981.75
 30
0.0
 40
1.0
100
AcDbArc
 50
180.0
 51
270.0
  0
LINE
  5
1287B
102
{ACAD_REACTORS
330
12998
102
}
330
1F
100
AcDbEntity
  8
Alu hart 1500
 62
     5
100
AcDbLine
 10
-1336.25
 20
14989.75
 30
0.0
 11
-1336.25
 21
14981.75
 31
0.0
  0
LINE
  5
1287C
102
{ACAD_REACTORS
330
12998
102
}
330
1F
100
AcDbEntity
  8
Alu hart 1500
 62
     5
100
AcDbLine
 10
-1392.0
 20
14990.75
 30
0.0
 11
-1337.25
 21
14990.75
 31
0.0
  0
LINE
  5
1287D
102
{ACAD_REACTORS
330
12998
102
}
330
1F
100
AcDbEntity
  8
Alu hart 1500
 62
     5
100
AcDbLine
 10
-1393.0
 20
14981.75
 30
0.0
 11
-1393.0
 21
14989.75
 31
0.0
  0
CIRCLE
  5
1287E
102
{ACAD_REACTORS
330
12998
102
}
330
1F
100
AcDbEntity
  8
Alu hart 1500
  6
Continuous
 62
     5
100
AcDbCircle
 10
-1339.250000000001
 20
14983.75
 30
0.0
 40
0.75
  0
CIRCLE
  5
1287F
102
{ACAD_REACTORS
330
12998
102
}
330
1F
100
AcDbEntity
  8
Alu hart 1500
  6
Continuous
 62
     5
100
AcDbCircle
 10
-1390.000000000001
 20
14983.75
 30
0.0
 40
0.75
  0
LINE
  5
12880
102
{ACAD_REACTORS
330
12998
102
}
330
1F
100
AcDbEntity
  8
Alu hart 1500
  6
Continuous
 62
     5
100
AcDbLine
 10
-1392.0
 20
14980.75
 30
0.0
 11
-1337.25
 21
14980.75
 31
0.0
  0
LINE
  5
12881
102
{ACAD_REACTORS
330
12998
102
}
330
1F
100
AcDbEntity
  8
Alu hart 1500
  6
Continuous
 62
     5
100
AcDbLine
 10
-1346.0
 20
14980.75
 30
0.0
 11
-1347.0
 21
14980.75
 31
0.0
  0
ARC
  5
128FF
102
{ACAD_REACTORS
330
12BD8
102
}
330
1F
100
AcDbEntity
  8
Edelstahl 1500
 62
    84
100
AcDbCircle
 10
-1314.500000000001
 20
14992.25
 30
0.0
 40
4.5
100
AcDbArc
 50
109.4712206345291
 51
341.0753555839413
  0
CIRCLE
  5
12900
102
{ACAD_REACTORS
330
12BD8
102
}
330
1F
100
AcDbEntity
  8
Edelstahl 1500
 62
    84
100
AcDbCircle
 10
-1309.500000000001
 20
15013.75
 30
0.0
 40
0.85
  0
CIRCLE
  5
12901
102
{ACAD_REACTORS
330
12BD8
102
}
330
1F
100
AcDbEntity
  8
Edelstahl 1500
 62
    84
100
AcDbCircle
 10
-1313.500000000001
 20
15029.25
 30
0.0
 40
0.85
  0
CIRCLE
  5
12902
102
{ACAD_REACTORS
330
12BD8
102
}
330
1F
100
AcDbEntity
  8
Edelstahl 1500
 62
    84
100
AcDbCircle
 10
-1313.500000000001
 20
15004.25
 30
0.0
 40
0.85
  0
LINE
  5
12906
102
{ACAD_REACTORS
330
12BD8
102
}
330
1F
100
AcDbEntity
  8
Edelstahl 1500
 62
    84
100
AcDbLine
 10
-1307.0
 20
15000.25
 30
0.0
 11
-1307.0
 21
15033.25
 31
0.0
  0
LINE
  5
12907
102
{ACAD_REACTORS
330
12BD8
102
}
330
1F
100
AcDbEntity
  8
Edelstahl 1500
 62
    84
100
AcDbLine
 10
-1314.5
 20
15033.25
 30
0.0
 11
-1308.5
 21
15033.25
 31
0.0
  0
CIRCLE
  5
12908
102
{ACAD_REACTORS
330
12BD8
102
}
330
1F
100
AcDbEntity
  8
Edelstahl 1500
 62
    84
100
AcDbCircle
 10
-1314.500000000001
 20
15041.25
 30
0.0
 40
3.0
  0
LINE
  5
12909
102
{ACAD_REACTORS
330
12BD8
102
}
330
1F
100
AcDbEntity
  8
Edelstahl 1500
 62
    84
100
AcDbLine
 10
-1316.0
 20
15037.00735931288
 30
0.0
 11
-1316.000000000004
 21
14996.49264068712
 31
0.0
  0
LINE
  5
1290A
102
{ACAD_REACTORS
330
12BD8
102
}
330
1F
100
AcDbEntity
  8
Edelstahl 1500
 62
    84
100
AcDbLine
 10
-1314.5
 20
15000.25
 30
0.0
 11
-1308.5
 21
15000.25
 31
0.0
  0
CIRCLE
  5
1290B
102
{ACAD_REACTORS
330
12BD8
102
}
330
1F
100
AcDbEntity
  8
Edelstahl 1500
 62
    84
100
AcDbCircle
 10
-1314.500000000001
 20
14992.25
 30
0.0
 40
3.0
  0
ARC
  5
129C8
102
{ACAD_REACTORS
330
129EE
102
}
330
1F
100
AcDbEntity
  8
Edelstahl 1500
  6
Continuous
 62
    84
100
AcDbCircle
 10
-1319.750000000001
 20
15009.9
 30
0.0
 40
1.1
100
AcDbArc
 50
89.99999999989576
 51
180.0
  0
ARC
  5
129C9
102
{ACAD_REACTORS
330
129EE
102
}
330
1F
100
AcDbEntity
  8
Edelstahl 1500
  6
Continuous
 62
    84
100
AcDbCircle
 10
-1319.750000000001
 20
15009.9
 30
0.0
 40
1.1
100
AcDbArc
 50
0.0
 51
90.0
  0
ARC
  5
129CA
102
{ACAD_REACTORS
330
129EE
102
}
330
1F
100
AcDbEntity
  8
Edelstahl 1500
  6
Continuous
 62
    84
100
AcDbCircle
 10
-1328.891311123102
 20
14994.75
 30
0.0
 40
2.0
100
AcDbArc
 50
270.0
 51
325.0079798013922
  0
ARC
  5
129CB
102
{ACAD_REACTORS
330
129EE
102
}
330
1F
100
AcDbEntity
  8
Edelstahl 1500
  6
Continuous
 62
    84
100
AcDbCircle
 10
-1317.500000000001
 20
15003.75
 30
0.0
 40
1.0
100
AcDbArc
 50
270.0
 51
0.0
  0
ARC
  5
129CC
102
{ACAD_REACTORS
330
129EE
102
}
330
1F
100
AcDbEntity
  8
Edelstahl 1500
  6
Continuous
 62
    84
100
AcDbCircle
 10
-1332.250000000001
 20
15009.9
 30
0.0
 40
1.1
100
AcDbArc
 50
0.0
 51
90.00000000010421
  0
ARC
  5
129CD
102
{ACAD_REACTORS
330
129EE
102
}
330
1F
100
AcDbEntity
  8
Edelstahl 1500
  6
Continuous
 62
    84
100
AcDbCircle
 10
-1332.250000000001
 20
15009.9
 30
0.0
 40
1.1
100
AcDbArc
 50
90.0
 51
180.0
  0
LINE
  5
129CE
102
{ACAD_REACTORS
330
129EE
102
}
330
1F
100
AcDbEntity
  8
Edelstahl 1500
  6
Continuous
 62
    84
100
AcDbLine
 10
-1340.000000000002
 20
15012.0
 30
0.0
 11
-1330.100000000002
 21
15012.0
 31
0.0
  0
LINE
  5
129CF
102
{ACAD_REACTORS
330
129EE
102
}
330
1F
100
AcDbEntity
  8
Edelstahl 1500
  6
Continuous
 62
    84
100
AcDbLine
 10
-1320.850000000002
 20
15002.75
 30
0.0
 11
-1317.500000000002
 21
15002.75
 31
0.0
  0
LINE
  5
129D0
102
{ACAD_REACTORS
330
129EE
102
}
330
1F
100
AcDbEntity
  8
Edelstahl 1500
  6
Continuous
 62
    84
100
AcDbLine
 10
-1330.875000000002
 20
15002.75
 30
0.0
 11
-1322.350000000002
 21
15002.75
 31
0.0
  0
LINE
  5
129D1
102
{ACAD_REACTORS
330
129EE
102
}
330
1F
100
AcDbEntity
  8
Edelstahl 1500
  6
Continuous
 62
    84
100
AcDbLine
 10
-1341.000000000002
 20
15002.75
 30
0.0
 11
-1332.475000000002
 21
15002.75
 31
0.0
  0
LINE
  5
129D2
102
{ACAD_REACTORS
330
129EE
102
}
330
1F
100
AcDbEntity
  8
Edelstahl 1500
  6
Continuous
 62
    84
100
AcDbLine
 10
-1327.252847282101
 20
14993.6030753113
 30
0.0
 11
-1320.850000000002
 21
15002.75
 31
0.0
  0
LINE
  5
129D3
102
{ACAD_REACTORS
330
129EE
102
}
330
1F
100
AcDbEntity
  8
Edelstahl 1500
  6
Continuous
 62
    84
100
AcDbLine
 10
-1340.000000000002
 20
14992.75
 30
0.0
 11
-1328.891311123101
 21
14992.75
 31
0.0
  0
LINE
  5
129D4
102
{ACAD_REACTORS
330
129EE
102
}
330
1F
100
AcDbEntity
  8
Edelstahl 1500
  6
Continuous
 62
    84
100
AcDbLine
 10
-1321.899999999901
 20
15012.0
 30
0.0
 11
-1317.487627230603
 21
15012.0
 31
0.0
  0
ARC
  5
129D5
102
{ACAD_REACTORS
330
129EE
102
}
330
1F
100
AcDbEntity
  8
Edelstahl 1500
  6
Continuous
 62
    84
100
AcDbCircle
 10
-1340.000000000001
 20
15009.5
 30
0.0
 40
2.5
100
AcDbArc
 50
90.0
 51
180.0
  0
LINE
  5
129D6
102
{ACAD_REACTORS
330
129EE
102
}
330
1F
100
AcDbEntity
  8
Edelstahl 1500
  6
Continuous
 62
    84
100
AcDbLine
 10
-1342.499999999902
 20
14995.25
 30
0.0
 11
-1342.499999999902
 21
15009.5
 31
0.0
  0
ARC
  5
129D7
102
{ACAD_REACTORS
330
129EE
102
}
330
1F
100
AcDbEntity
  8
Edelstahl 1500
  6
Continuous
 62
    84
100
AcDbCircle
 10
-1317.500000000001
 20
15011.0000765457
 30
0.0
 40
1.0
100
AcDbArc
 50
0.0
 51
89.29107444710432
  0
ARC
  5
129D8
102
{ACAD_REACTORS
330
129EE
102
}
330
1F
100
AcDbEntity
  8
Edelstahl 1500
  6
Continuous
 62
    84
100
AcDbCircle
 10
-1340.000000000001
 20
14995.25
 30
0.0
 40
2.5
100
AcDbArc
 50
180.0
 51
270.0
  0
LINE
  5
129D9
102
{ACAD_REACTORS
330
129EE
102
}
330
1F
100
AcDbEntity
  8
Edelstahl 1500
  6
Continuous
 62
    84
100
AcDbLine
 10
-1337.000000000002
 20
14998.15
 30
0.0
 11
-1340.000000000002
 21
14998.15
 31
0.0
  0
LINE
  5
129DA
102
{ACAD_REACTORS
330
129EE
102
}
330
1F
100
AcDbEntity
  8
Edelstahl 1500
  6
Continuous
 62
    84
100
AcDbLine
 10
-1337.000000000002
 20
15000.35
 30
0.0
 11
-1340.000000000002
 21
15000.35
 31
0.0
  0
ARC
  5
129DB
102
{ACAD_REACTORS
330
129EE
102
}
330
1F
100
AcDbEntity
  8
Edelstahl 1500
  6
Continuous
 62
    84
100
AcDbCircle
 10
-1337.000000000001
 20
14999.25
 30
0.0
 40
1.1
100
AcDbArc
 50
270.0
 51
90.0
  0
ARC
  5
129DC
102
{ACAD_REACTORS
330
129EE
102
}
330
1F
100
AcDbEntity
  8
Edelstahl 1500
  6
Continuous
 62
    84
100
AcDbCircle
 10
-1340.000000000001
 20
14999.25
 30
0.0
 40
1.1
100
AcDbArc
 50
90.0
 51
270.0
  0
ARC
  5
129DD
102
{ACAD_REACTORS
330
129EE
102
}
330
1F
100
AcDbEntity
  8
Edelstahl 1500
  6
Continuous
 62
    84
100
AcDbCircle
 10
-1330.100000000001
 20
15011.0
 30
0.0
 40
1.0
100
AcDbArc
 50
0.0
 51
89.99999999980456
  0
ARC
  5
129DE
102
{ACAD_REACTORS
330
129EE
102
}
330
1F
100
AcDbEntity
  8
Edelstahl 1500
  6
Continuous
 62
    84
100
AcDbCircle
 10
-1321.899999999902
 20
15011.0
 30
0.0
 40
1.0
100
AcDbArc
 50
90.0
 51
180.0
  0
LINE
  5
129DF
102
{ACAD_REACTORS
330
129EE
102
}
330
1F
100
AcDbEntity
  8
Edelstahl 1500
  6
Continuous
 62
    84
100
AcDbLine
 10
-1316.500000000002
 20
15011.0000765457
 30
0.0
 11
-1316.500000000002
 21
15003.75
 31
0.0
  0
LINE
  5
129E0
102
{ACAD_REACTORS
330
129EE
102
}
330
1F
100
AcDbEntity
  8
Edelstahl 1500
  6
Continuous
 62
    84
100
AcDbLine
 10
-1318.650000000001
 20
15007.5
 30
0.0
 11
-1318.650000000001
 21
15009.75
 31
0.0
  0
ARC
  5
129E1
102
{ACAD_REACTORS
330
129EE
102
}
330
1F
100
AcDbEntity
  8
Edelstahl 1500
  6
Continuous
 62
    84
100
AcDbCircle
 10
-1319.749999999902
 20
15007.5
 30
0.0
 40
1.1
100
AcDbArc
 50
180.0
 51
0.0
  0
LINE
  5
129E2
102
{ACAD_REACTORS
330
129EE
102
}
330
1F
100
AcDbEntity
  8
Edelstahl 1500
  6
Continuous
 62
    84
100
AcDbLine
 10
-1333.350000000002
 20
15007.5
 30
0.0
 11
-1333.350000000002
 21
15009.9
 31
0.0
  0
ARC
  5
129E3
102
{ACAD_REACTORS
330
129EE
102
}
330
1F
100
AcDbEntity
  8
Edelstahl 1500
  6
Continuous
 62
    84
100
AcDbCircle
 10
-1332.250000000001
 20
15007.5
 30
0.0
 40
1.1
100
AcDbArc
 50
180.0
 51
0.0
  0
ARC
  5
129E4
102
{ACAD_REACTORS
330
129EE
102
}
330
1F
100
AcDbEntity
  8
Edelstahl 1500
  6
Continuous
 62
    84
100
AcDbCircle
 10
-1326.000000000001
 20
15007.85
 30
0.0
 40
3.1
100
AcDbArc
 50
180.0
 51
0.0
  0
LINE
  5
129E5
102
{ACAD_REACTORS
330
129EE
102
}
330
1F
100
AcDbEntity
  8
Edelstahl 1500
  6
Continuous
 62
    84
100
AcDbLine
 10
-1320.850000000002
 20
15009.75
 30
0.0
 11
-1320.850000000002
 21
15007.5
 31
0.0
  0
LINE
  5
129E6
102
{ACAD_REACTORS
330
129EE
102
}
330
1F
100
AcDbEntity
  8
Edelstahl 1500
  6
Continuous
 62
    84
100
AcDbLine
 10
-1322.900000000001
 20
15007.85
 30
0.0
 11
-1322.899999999901
 21
15011.0
 31
0.0
  0
LINE
  5
129E7
102
{ACAD_REACTORS
330
129EE
102
}
330
1F
100
AcDbEntity
  8
Edelstahl 1500
  6
Continuous
 62
    84
100
AcDbLine
 10
-1329.099999999902
 20
15011.0
 30
0.0
 11
-1329.100000000002
 21
15007.85
 31
0.0
  0
LINE
  5
129E8
102
{ACAD_REACTORS
330
129EE
102
}
330
1F
100
AcDbEntity
  8
Edelstahl 1500
  6
Continuous
 62
    84
100
AcDbLine
 10
-1331.150000000001
 20
15007.5
 30
0.0
 11
-1331.150000000001
 21
15009.9
 31
0.0
  0
LINE
  5
129E9
102
{ACAD_REACTORS
330
129EE
102
}
330
1F
100
AcDbEntity
  8
Edelstahl 1500
  6
Continuous
 62
    84
100
AcDbLine
 10
-1331.500000000002
 20
14994.15
 30
0.0
 11
-1334.500000000002
 21
14994.15
 31
0.0
  0
LINE
  5
129EA
102
{ACAD_REACTORS
330
129EE
102
}
330
1F
100
AcDbEntity
  8
Edelstahl 1500
  6
Continuous
 62
    84
100
AcDbLine
 10
-1331.500000000002
 20
14996.35
 30
0.0
 11
-1334.500000000002
 21
14996.35
 31
0.0
  0
ARC
  5
129EB
102
{ACAD_REACTORS
330
129EE
102
}
330
1F
100
AcDbEntity
  8
Edelstahl 1500
  6
Continuous
 62
    84
100
AcDbCircle
 10
-1331.500000000001
 20
14995.25
 30
0.0
 40
1.1
100
AcDbArc
 50
270.0
 51
90.0
  0
ARC
  5
129EC
102
{ACAD_REACTORS
330
129EE
102
}
330
1F
100
AcDbEntity
  8
Edelstahl 1500
  6
Continuous
 62
    84
100
AcDbCircle
 10
-1334.500000000001
 20
14995.25
 30
0.0
 40
1.1
100
AcDbArc
 50
90.0
 51
270.0
  0
ARC
  5
129EF
102
{ACAD_REACTORS
330
129FA
102
}
330
1F
100
AcDbEntity
  8
Alu hart 1500
 62
     5
100
AcDbCircle
 10
-1337.250000000001
 20
15041.75
 30
0.0
 40
1.0
100
AcDbArc
 50
270.0
 51
0.0
  0
ARC
  5
129F0
102
{ACAD_REACTORS
330
129FA
102
}
330
1F
100
AcDbEntity
  8
Alu hart 1500
 62
     5
100
AcDbCircle
 10
-1337.250000000001
 20
15049.75
 30
0.0
 40
1.0
100
AcDbArc
 50
0.0
 51
90.0
  0
ARC
  5
129F1
102
{ACAD_REACTORS
330
129FA
102
}
330
1F
100
AcDbEntity
  8
Alu hart 1500
 62
     5
100
AcDbCircle
 10
-1392.000000000001
 20
15049.75
 30
0.0
 40
1.0
100
AcDbArc
 50
90.0
 51
180.0
  0
ARC
  5
129F2
102
{ACAD_REACTORS
330
129FA
102
}
330
1F
100
AcDbEntity
  8
Alu hart 1500
 62
     5
100
AcDbCircle
 10
-1392.000000000001
 20
15041.75
 30
0.0
 40
1.0
100
AcDbArc
 50
180.0
 51
270.0
  0
LINE
  5
129F3
102
{ACAD_REACTORS
330
129FA
102
}
330
1F
100
AcDbEntity
  8
Alu hart 1500
 62
     5
100
AcDbLine
 10
-1336.25
 20
15049.75
 30
0.0
 11
-1336.25
 21
15041.75
 31
0.0
  0
LINE
  5
129F4
102
{ACAD_REACTORS
330
129FA
102
}
330
1F
100
AcDbEntity
  8
Alu hart 1500
 62
     5
100
AcDbLine
 10
-1392.0
 20
15050.75
 30
0.0
 11
-1337.25
 21
15050.75
 31
0.0
  0
LINE
  5
129F5
102
{ACAD_REACTORS
330
129FA
102
}
330
1F
100
AcDbEntity
  8
Alu hart 1500
 62
     5
100
AcDbLine
 10
-1393.0
 20
15041.75
 30
0.0
 11
-1393.0
 21
15049.75
 31
0.0
  0
CIRCLE
  5
129F6
102
{ACAD_REACTORS
330
129FA
102
}
330
1F
100
AcDbEntity
  8
Alu hart 1500
  6
Continuous
 62
     5
100
AcDbCircle
 10
-1339.250000000001
 20
15043.75
 30
0.0
 40
0.75
  0
CIRCLE
  5
129F7
102
{ACAD_REACTORS
330
129FA
102
}
330
1F
100
AcDbEntity
  8
Alu hart 1500
  6
Continuous
 62
     5
100
AcDbCircle
 10
-1390.000000000001
 20
15043.75
 30
0.0
 40
0.75
  0
LINE
  5
129F8
102
{ACAD_REACTORS
330
129FA
102
}
330
1F
100
AcDbEntity
  8
Alu hart 1500
  6
Continuous
 62
     5
100
AcDbLine
 10
-1392.0
 20
15040.75
 30
0.0
 11
-1337.25
 21
15040.75
 31
0.0
  0
LINE
  5
129F9
102
{ACAD_REACTORS
330
129FA
102
}
330
1F
100
AcDbEntity
  8
Alu hart 1500
  6
Continuous
 62
     5
100
AcDbLine
 10
-1346.0
 20
15040.75
 30
0.0
 11
-1347.0
 21
15040.75
 31
0.0
  0
ARC
  5
12A52
102
{ACAD_REACTORS
330
12AA0
102
}
330
1F
100
AcDbEntity
  8
Alu hart 1500
  6
Continuous
 62
     5
100
AcDbCircle
 10
-1373.5
 20
15021.75
 30
0.0
 40
16.0
100
AcDbArc
 50
0.0
 51
90.0
  0
ARC
  5
12A53
102
{ACAD_REACTORS
330
12AA0
102
}
330
1F
100
AcDbEntity
  8
Alu hart 1500
  6
Continuous
 62
     5
100
AcDbCircle
 10
-1373.5
 20
15005.75
 30
0.0
 40
16.0
100
AcDbArc
 50
270.0
 51
0.0
  0
LINE
  5
12A57
102
{ACAD_REACTORS
330
12AA0
102
}
330
1F
100
AcDbEntity
  8
Alu hart 1500
  6
Continuous
 62
     5
100
AcDbLine
 10
-1398.000000000001
 20
15037.75
 30
0.0
 11
-1373.499999999999
 21
15037.75
 31
0.0
  0
LINE
  5
12A58
102
{ACAD_REACTORS
330
12AA0
102
}
330
1F
100
AcDbEntity
  8
Alu hart 1500
  6
Continuous
 62
     5
100
AcDbLine
 10
-1357.5
 20
15005.75
 30
0.0
 11
-1357.5
 21
15021.75
 31
0.0
  0
LINE
  5
12A59
102
{ACAD_REACTORS
330
12AA0
102
}
330
1F
100
AcDbEntity
  8
Alu hart 1500
  6
Continuous
 62
     5
100
AcDbLine
 10
-1398.000000000001
 20
14989.75
 30
0.0
 11
-1373.5
 21
14989.75
 31
0.0
  0
ARC
  5
12A5F
102
{ACAD_REACTORS
330
12AA0
102
}
330
1F
100
AcDbEntity
  8
Alu hart 1500
  6
Continuous
 62
     5
100
AcDbCircle
 10
-1393.150000000002
 20
14982.75
 30
0.0
 40
1.0
100
AcDbArc
 50
180.0
 51
270.0
  0
ARC
  5
12A60
102
{ACAD_REACTORS
330
12AA0
102
}
330
1F
100
AcDbEntity
  8
Alu hart 1500
  6
Continuous
 62
     5
100
AcDbCircle
 10
-1336.100000000001
 20
14982.75
 30
0.0
 40
1.0
100
AcDbArc
 50
270.0
 51
0.0
  0
ARC
  5
12A61
102
{ACAD_REACTORS
330
12AA0
102
}
330
1F
100
AcDbEntity
  8
Alu hart 1500
  6
Continuous
 62
     5
100
AcDbCircle
 10
-1331.250000000001
 20
14987.35
 30
0.0
 40
1.0
100
AcDbArc
 50
270.0
 51
0.0
  0
ARC
  5
12A62
102
{ACAD_REACTORS
330
12AA0
102
}
330
1F
100
AcDbEntity
  8
Alu hart 1500
  6
Continuous
 62
     5
100
AcDbCircle
 10
-1331.250000000001
 20
15040.15
 30
0.0
 40
1.0
100
AcDbArc
 50
0.0
 51
90.0
  0
ARC
  5
12A63
102
{ACAD_REACTORS
330
12AA0
102
}
330
1F
100
AcDbEntity
  8
Alu hart 1500
  6
Continuous
 62
     5
100
AcDbCircle
 10
-1336.100000000001
 20
15044.75
 30
0.0
 40
1.0
100
AcDbArc
 50
0.0
 51
90.0
  0
ARC
  5
12A64
102
{ACAD_REACTORS
330
12AA0
102
}
330
1F
100
AcDbEntity
  8
Alu hart 1500
  6
Continuous
 62
     5
100
AcDbCircle
 10
-1398.000000000001
 20
14987.35
 30
0.0
 40
1.0
100
AcDbArc
 50
180.0
 51
270.0
  0
ARC
  5
12A65
102
{ACAD_REACTORS
330
12AA0
102
}
330
1F
100
AcDbEntity
  8
Alu hart 1500
  6
Continuous
 62
     5
100
AcDbCircle
 10
-1398.000000000001
 20
15040.15
 30
0.0
 40
1.0
100
AcDbArc
 50
90.0
 51
180.0
  0
LINE
  5
12A66
102
{ACAD_REACTORS
330
12AA0
102
}
330
1F
100
AcDbEntity
  8
Alu hart 1500
  6
Continuous
 62
     5
100
AcDbLine
 10
-1335.1
 20
14984.75
 30
0.0
 11
-1335.1
 21
14982.75
 31
0.0
  0
LINE
  5
12A67
102
{ACAD_REACTORS
330
12AA0
102
}
330
1F
100
AcDbEntity
  8
Alu hart 1500
  6
Continuous
 62
     5
100
AcDbLine
 10
-1394.150000000001
 20
14984.75
 30
0.0
 11
-1394.150000000001
 21
14982.75
 31
0.0
  0
LINE
  5
12A68
102
{ACAD_REACTORS
330
12AA0
102
}
330
1F
100
AcDbEntity
  8
Alu hart 1500
  6
Continuous
 62
     5
100
AcDbLine
 10
-1335.1
 20
15042.75
 30
0.0
 11
-1335.1
 21
15044.75
 31
0.0
  0
ARC
  5
12A69
102
{ACAD_REACTORS
330
12AA0
102
}
330
1F
100
AcDbEntity
  8
Alu hart 1500
  6
Continuous
 62
     5
100
AcDbCircle
 10
-1393.150000000002
 20
15044.75
 30
0.0
 40
1.0
100
AcDbArc
 50
90.0
 51
180.0
  0
LINE
  5
12A6A
102
{ACAD_REACTORS
330
12AA0
102
}
330
1F
100
AcDbEntity
  8
Alu hart 1500
  6
Continuous
 62
     5
100
AcDbLine
 10
-1394.150000000001
 20
15042.75
 30
0.0
 11
-1394.150000000001
 21
15044.75
 31
0.0
  0
ARC
  5
12A6B
102
{ACAD_REACTORS
330
12AA0
102
}
330
1F
100
AcDbEntity
  8
Alu hart 1500
  6
Continuous
 62
     5
100
AcDbCircle
 10
-1398.000000000001
 20
15038.75
 30
0.0
 40
1.0
100
AcDbArc
 50
180.0
 51
270.0
  0
ARC
  5
12A6C
102
{ACAD_REACTORS
330
12AA0
102
}
330
1F
100
AcDbEntity
  8
Alu hart 1500
  6
Continuous
 62
     5
100
AcDbCircle
 10
-1398.000000000001
 20
14988.75
 30
0.0
 40
1.0
100
AcDbArc
 50
90.0
 51
180.0
  0
ARC
  5
12A6D
102
{ACAD_REACTORS
330
12AA0
102
}
330
1F
100
AcDbEntity
  8
Alu hart 1500
  6
Continuous
 62
     5
100
AcDbCircle
 10
-1331.250000000001
 20
14988.75
 30
0.0
 40
1.0
100
AcDbArc
 50
0.0
 51
90.0
  0
ARC
  5
12A6E
102
{ACAD_REACTORS
330
12AA0
102
}
330
1F
100
AcDbEntity
  8
Alu hart 1500
  6
Continuous
 62
     5
100
AcDbCircle
 10
-1346.500000000001
 20
14992.75
 30
0.0
 40
3.0
100
AcDbArc
 50
180.0
 51
270.0
  0
LINE
  5
12A6F
102
{ACAD_REACTORS
330
12AA0
102
}
330
1F
100
AcDbEntity
  8
Alu hart 1500
  6
Continuous
 62
     5
100
AcDbLine
 10
-1399.0
 20
14988.75
 30
0.0
 11
-1399.0
 21
14987.35
 31
0.0
  0
LINE
  5
12A70
102
{ACAD_REACTORS
330
12AA0
102
}
330
1F
100
AcDbEntity
  8
Alu hart 1500
  6
Continuous
 62
     5
100
AcDbLine
 10
-1395.75
 20
14986.35
 30
0.0
 11
-1398.0
 21
14986.35
 31
0.0
  0
LINE
  5
12A71
102
{ACAD_REACTORS
330
12AA0
102
}
330
1F
100
AcDbEntity
  8
Alu hart 1500
  6
Continuous
 62
     5
100
AcDbLine
 10
-1391.0
 20
14981.75
 30
0.0
 11
-1393.150000000001
 21
14981.75
 31
0.0
  0
LINE
  5
12A72
102
{ACAD_REACTORS
330
12AA0
102
}
330
1F
100
AcDbEntity
  8
Alu hart 1500
  6
Continuous
 62
     5
100
AcDbLine
 10
-1391.0
 20
14983.75
 30
0.0
 11
-1391.0
 21
14981.75
 31
0.0
  0
LINE
  5
12A73
102
{ACAD_REACTORS
330
12AA0
102
}
330
1F
100
AcDbEntity
  8
Alu hart 1500
  6
Continuous
 62
     5
100
AcDbLine
 10
-1389.0
 20
14981.75
 30
0.0
 11
-1389.0
 21
14983.75
 31
0.0
  0
LINE
  5
12A74
102
{ACAD_REACTORS
330
12AA0
102
}
330
1F
100
AcDbEntity
  8
Alu hart 1500
  6
Continuous
 62
     5
100
AcDbLine
 10
-1340.25
 20
14981.75
 30
0.0
 11
-1389.0
 21
14981.75
 31
0.0
  0
LINE
  5
12A75
102
{ACAD_REACTORS
330
12AA0
102
}
330
1F
100
AcDbEntity
  8
Alu hart 1500
  6
Continuous
 62
     5
100
AcDbLine
 10
-1340.25
 20
14983.75
 30
0.0
 11
-1340.25
 21
14981.75
 31
0.0
  0
LINE
  5
12A76
102
{ACAD_REACTORS
330
12AA0
102
}
330
1F
100
AcDbEntity
  8
Alu hart 1500
  6
Continuous
 62
     5
100
AcDbLine
 10
-1338.25
 20
14981.75
 30
0.0
 11
-1338.25
 21
14983.75
 31
0.0
  0
LINE
  5
12A77
102
{ACAD_REACTORS
330
12AA0
102
}
330
1F
100
AcDbEntity
  8
Alu hart 1500
  6
Continuous
 62
     5
100
AcDbLine
 10
-1336.1
 20
14981.75
 30
0.0
 11
-1338.25
 21
14981.75
 31
0.0
  0
LINE
  5
12A78
102
{ACAD_REACTORS
330
12AA0
102
}
330
1F
100
AcDbEntity
  8
Alu hart 1500
  6
Continuous
 62
     5
100
AcDbLine
 10
-1331.25
 20
14986.35
 30
0.0
 11
-1333.5
 21
14986.35
 31
0.0
  0
LINE
  5
12A79
102
{ACAD_REACTORS
330
12AA0
102
}
330
1F
100
AcDbEntity
  8
Alu hart 1500
  6
Continuous
 62
     5
100
AcDbLine
 10
-1330.25
 20
14988.75
 30
0.0
 11
-1330.25
 21
14987.35
 31
0.0
  0
LINE
  5
12A7A
102
{ACAD_REACTORS
330
12AA0
102
}
330
1F
100
AcDbEntity
  8
Alu hart 1500
  6
Continuous
 62
     5
100
AcDbLine
 10
-1346.5
 20
14989.75
 30
0.0
 11
-1331.25
 21
14989.75
 31
0.0
  0
ARC
  5
12A7B
102
{ACAD_REACTORS
330
12AA0
102
}
330
1F
100
AcDbEntity
  8
Alu hart 1500
  6
Continuous
 62
     5
100
AcDbCircle
 10
-1390.000000000001
 20
14983.75
 30
0.0
 40
1.0
100
AcDbArc
 50
0.0
 51
180.0
  0
ARC
  5
12A7C
102
{ACAD_REACTORS
330
12AA0
102
}
330
1F
100
AcDbEntity
  8
Alu hart 1500
  6
Continuous
 62
     5
100
AcDbCircle
 10
-1339.250000000001
 20
14983.75
 30
0.0
 40
1.0
100
AcDbArc
 50
0.0
 51
180.0
  0
ARC
  5
12A7D
102
{ACAD_REACTORS
330
12AA0
102
}
330
1F
100
AcDbEntity
  8
Alu hart 1500
  6
Continuous
 62
     5
100
AcDbCircle
 10
-1333.500000000001
 20
14984.75
 30
0.0
 40
1.6
100
AcDbArc
 50
90.0
 51
180.0
  0
ARC
  5
12A7E
102
{ACAD_REACTORS
330
12AA0
102
}
330
1F
100
AcDbEntity
  8
Alu hart 1500
  6
Continuous
 62
     5
100
AcDbCircle
 10
-1395.750000000001
 20
14984.75
 30
0.0
 40
1.6
100
AcDbArc
 50
0.0
 51
90.0
  0
ARC
  5
12A7F
102
{ACAD_REACTORS
330
12AA0
102
}
330
1F
100
AcDbEntity
  8
Alu hart 1500
  6
Continuous
 62
     5
100
AcDbCircle
 10
-1331.250000000001
 20
15038.75
 30
0.0
 40
1.0
100
AcDbArc
 50
270.0
 51
0.0
  0
ARC
  5
12A80
102
{ACAD_REACTORS
330
12AA0
102
}
330
1F
100
AcDbEntity
  8
Alu hart 1500
  6
Continuous
 62
     5
100
AcDbCircle
 10
-1346.500000000001
 20
15034.75
 30
0.0
 40
3.0
100
AcDbArc
 50
90.0
 51
180.0
  0
LINE
  5
12A81
102
{ACAD_REACTORS
330
12AA0
102
}
330
1F
100
AcDbEntity
  8
Alu hart 1500
  6
Continuous
 62
     5
100
AcDbLine
 10
-1399.0
 20
15038.75
 30
0.0
 11
-1399.0
 21
15040.15
 31
0.0
  0
LINE
  5
12A82
102
{ACAD_REACTORS
330
12AA0
102
}
330
1F
100
AcDbEntity
  8
Alu hart 1500
  6
Continuous
 62
     5
100
AcDbLine
 10
-1395.75
 20
15041.15
 30
0.0
 11
-1398.0
 21
15041.15
 31
0.0
  0
LINE
  5
12A83
102
{ACAD_REACTORS
330
12AA0
102
}
330
1F
100
AcDbEntity
  8
Alu hart 1500
  6
Continuous
 62
     5
100
AcDbLine
 10
-1391.0
 20
15045.75
 30
0.0
 11
-1393.150000000001
 21
15045.75
 31
0.0
  0
LINE
  5
12A84
102
{ACAD_REACTORS
330
12AA0
102
}
330
1F
100
AcDbEntity
  8
Alu hart 1500
  6
Continuous
 62
     5
100
AcDbLine
 10
-1391.0
 20
15043.75
 30
0.0
 11
-1391.0
 21
15045.75
 31
0.0
  0
LINE
  5
12A85
102
{ACAD_REACTORS
330
12AA0
102
}
330
1F
100
AcDbEntity
  8
Alu hart 1500
  6
Continuous
 62
     5
100
AcDbLine
 10
-1389.0
 20
15045.75
 30
0.0
 11
-1389.0
 21
15043.75
 31
0.0
  0
LINE
  5
12A86
102
{ACAD_REACTORS
330
12AA0
102
}
330
1F
100
AcDbEntity
  8
Alu hart 1500
  6
Continuous
 62
     5
100
AcDbLine
 10
-1340.25
 20
15045.75
 30
0.0
 11
-1389.0
 21
15045.75
 31
0.0
  0
LINE
  5
12A87
102
{ACAD_REACTORS
330
12AA0
102
}
330
1F
100
AcDbEntity
  8
Alu hart 1500
  6
Continuous
 62
     5
100
AcDbLine
 10
-1340.25
 20
15043.75
 30
0.0
 11
-1340.25
 21
15045.75
 31
0.0
  0
LINE
  5
12A88
102
{ACAD_REACTORS
330
12AA0
102
}
330
1F
100
AcDbEntity
  8
Alu hart 1500
  6
Continuous
 62
     5
100
AcDbLine
 10
-1338.25
 20
15045.75
 30
0.0
 11
-1338.25
 21
15043.75
 31
0.0
  0
LINE
  5
12A89
102
{ACAD_REACTORS
330
12AA0
102
}
330
1F
100
AcDbEntity
  8
Alu hart 1500
  6
Continuous
 62
     5
100
AcDbLine
 10
-1336.1
 20
15045.75
 30
0.0
 11
-1338.25
 21
15045.75
 31
0.0
  0
LINE
  5
12A8A
102
{ACAD_REACTORS
330
12AA0
102
}
330
1F
100
AcDbEntity
  8
Alu hart 1500
  6
Continuous
 62
     5
100
AcDbLine
 10
-1331.25
 20
15041.15
 30
0.0
 11
-1333.5
 21
15041.15
 31
0.0
  0
LINE
  5
12A8B
102
{ACAD_REACTORS
330
12AA0
102
}
330
1F
100
AcDbEntity
  8
Alu hart 1500
  6
Continuous
 62
     5
100
AcDbLine
 10
-1330.25
 20
15038.75
 30
0.0
 11
-1330.25
 21
15040.15
 31
0.0
  0
LINE
  5
12A8C
102
{ACAD_REACTORS
330
12AA0
102
}
330
1F
100
AcDbEntity
  8
Alu hart 1500
  6
Continuous
 62
     5
100
AcDbLine
 10
-1346.5
 20
15037.75
 30
0.0
 11
-1331.25
 21
15037.75
 31
0.0
  0
LINE
  5
12A8D
102
{ACAD_REACTORS
330
12AA0
102
}
330
1F
100
AcDbEntity
  8
Alu hart 1500
  6
Continuous
 62
     5
100
AcDbLine
 10
-1349.5
 20
14992.75
 30
0.0
 11
-1349.5
 21
15034.75
 31
0.0
  0
ARC
  5
12A8E
102
{ACAD_REACTORS
330
12AA0
102
}
330
1F
100
AcDbEntity
  8
Alu hart 1500
  6
Continuous
 62
     5
100
AcDbCircle
 10
-1390.000000000001
 20
15043.75
 30
0.0
 40
1.0
100
AcDbArc
 50
180.0
 51
0.0
  0
ARC
  5
12A8F
102
{ACAD_REACTORS
330
12AA0
102
}
330
1F
100
AcDbEntity
  8
Alu hart 1500
  6
Continuous
 62
     5
100
AcDbCircle
 10
-1339.250000000001
 20
15043.75
 30
0.0
 40
1.0
100
AcDbArc
 50
180.0
 51
0.0
  0
ARC
  5
12A90
102
{ACAD_REACTORS
330
12AA0
102
}
330
1F
100
AcDbEntity
  8
Alu hart 1500
  6
Continuous
 62
     5
100
AcDbCircle
 10
-1333.500000000001
 20
15042.75
 30
0.0
 40
1.6
100
AcDbArc
 50
180.0
 51
270.0
  0
ARC
  5
12A91
102
{ACAD_REACTORS
330
12AA0
102
}
330
1F
100
AcDbEntity
  8
Alu hart 1500
  6
Continuous
 62
     5
100
AcDbCircle
 10
-1395.750000000001
 20
15042.75
 30
0.0
 40
1.6
100
AcDbArc
 50
270.0
 51
0.0
  0
ARC
  5
12B16
102
{ACAD_REACTORS
330
12B87
102
}
330
1F
100
AcDbEntity
  8
Edelstahl 1500
  6
Continuous
 62
    84
100
AcDbCircle
 10
-1399.5857864376
 20
15044.75
 30
0.0
 40
1.0
100
AcDbArc
 50
90.0
 51
135.0000000000092
  0
ARC
  5
12B17
102
{ACAD_REACTORS
330
12B87
102
}
330
1F
100
AcDbEntity
  8
Edelstahl 1500
  6
Continuous
 62
    84
100
AcDbCircle
 10
-1407.000000000001
 20
15037.3357864376
 30
0.0
 40
1.0
100
AcDbArc
 50
135.0000000000092
 51
180.0
  0
LINE
  5
12B18
102
{ACAD_REACTORS
330
12B87
102
}
330
1F
100
AcDbEntity
  8
Edelstahl 1500
  6
Continuous
 62
    84
100
AcDbLine
 10
-1400.292893218798
 20
15045.4571067812
 30
0.0
 11
-1407.707106781201
 21
15038.0428932188
 31
0.0
  0
LINE
  5
12B19
102
{ACAD_REACTORS
330
12B87
102
}
330
1F
100
AcDbEntity
  8
Edelstahl 1500
  6
Continuous
 62
    84
100
AcDbLine
 10
-1399.585786437599
 20
15045.75
 30
0.0
 11
-1394.0
 21
15045.75
 31
0.0
  0
CIRCLE
  5
12B1A
102
{ACAD_REACTORS
330
12B87
102
}
330
1F
100
AcDbEntity
  8
Edelstahl 1500
  6
Continuous
 62
    84
100
AcDbCircle
 10
-1396.000000000001
 20
15042.75
 30
0.0
 40
1.0
  0
ARC
  5
12B1B
102
{ACAD_REACTORS
330
12B87
102
}
330
1F
100
AcDbEntity
  8
Edelstahl 1500
  6
Continuous
 62
    84
100
AcDbCircle
 10
-1399.5857864376
 20
14982.75
 30
0.0
 40
1.0
100
AcDbArc
 50
224.9999999999908
 51
270.0
  0
ARC
  5
12B1C
102
{ACAD_REACTORS
330
12B87
102
}
330
1F
100
AcDbEntity
  8
Edelstahl 1500
  6
Continuous
 62
    84
100
AcDbCircle
 10
-1407.000000000001
 20
14990.1642135624
 30
0.0
 40
1.0
100
AcDbArc
 50
180.0
 51
224.9999999999908
  0
LINE
  5
12B1D
102
{ACAD_REACTORS
330
12B87
102
}
330
1F
100
AcDbEntity
  8
Edelstahl 1500
  6
Continuous
 62
    84
100
AcDbLine
 10
-1400.292893218798
 20
14982.0428932188
 30
0.0
 11
-1407.707106781201
 21
14989.4571067812
 31
0.0
  0
CIRCLE
  5
12B1E
102
{ACAD_REACTORS
330
12B87
102
}
330
1F
100
AcDbEntity
  8
Edelstahl 1500
  6
Continuous
 62
    84
100
AcDbCircle
 10
-1309.500000000001
 20
15013.75
 30
0.0
 40
1.0
  0
CIRCLE
  5
12B1F
102
{ACAD_REACTORS
330
12B87
102
}
330
1F
100
AcDbEntity
  8
Edelstahl 1500
  6
Continuous
 62
    84
100
AcDbCircle
 10
-1313.500000000001
 20
15029.25
 30
0.0
 40
1.0
  0
CIRCLE
  5
12B20
102
{ACAD_REACTORS
330
12B87
102
}
330
1F
100
AcDbEntity
  8
Edelstahl 1500
  6
Continuous
 62
    84
100
AcDbCircle
 10
-1313.500000000001
 20
15004.25
 30
0.0
 40
1.0
  0
CIRCLE
  5
12B21
102
{ACAD_REACTORS
330
12B87
102
}
330
1F
100
AcDbEntity
  8
Edelstahl 1500
  6
Continuous
 62
    84
100
AcDbCircle
 10
-1374.000000000001
 20
15013.75
 30
0.0
 40
1.0
  0
ARC
  5
12B22
102
{ACAD_REACTORS
330
12B87
102
}
330
1F
100
AcDbEntity
  8
Edelstahl 1500
  6
Continuous
 62
    84
100
AcDbCircle
 10
-1308.000000000001
 20
15001.25
 30
0.0
 40
1.0
100
AcDbArc
 50
270.0
 51
0.0
  0
ARC
  5
12B23
102
{ACAD_REACTORS
330
12B87
102
}
330
1F
100
AcDbEntity
  8
Edelstahl 1500
  6
Continuous
 62
    84
100
AcDbCircle
 10
-1308.000000000001
 20
15032.25
 30
0.0
 40
1.0
100
AcDbArc
 50
0.0
 51
90.0
  0
ARC
  5
12B24
102
{ACAD_REACTORS
330
12B87
102
}
330
1F
100
AcDbEntity
  8
Edelstahl 1500
  6
Continuous
 62
    84
100
AcDbCircle
 10
-1324.250000000001
 20
14999.25
 30
0.0
 40
1.0
100
AcDbArc
 50
90.0
 51
180.0
  0
LINE
  5
12B25
102
{ACAD_REACTORS
330
12B87
102
}
330
1F
100
AcDbEntity
  8
Edelstahl 1500
  6
Continuous
 62
    84
100
AcDbLine
 10
-1408.0
 20
15037.3357864376
 30
0.0
 11
-1408.0
 21
14990.1642135624
 31
0.0
  0
LINE
  5
12B27
102
{ACAD_REACTORS
330
12B87
102
}
330
1F
100
AcDbEntity
  8
Edelstahl 1500
  6
Continuous
 62
    84
100
AcDbLine
 10
-1336.25
 20
15043.75
 30
0.0
 11
-1336.25
 21
15044.75
 31
0.0
  0
ARC
  5
12B28
102
{ACAD_REACTORS
330
12B87
102
}
330
1F
100
AcDbEntity
  8
Edelstahl 1500
  6
Continuous
 62
    84
100
AcDbCircle
 10
-1335.250000000001
 20
15044.75
 30
0.0
 40
1.0
100
AcDbArc
 50
90.0
 51
180.0
  0
LINE
  5
12B29
102
{ACAD_REACTORS
330
12B87
102
}
330
1F
100
AcDbEntity
  8
Edelstahl 1500
  6
Continuous
 62
    84
100
AcDbLine
 10
-1336.25
 20
14982.75
 30
0.0
 11
-1336.25
 21
14983.75
 31
0.0
  0
ARC
  5
12B2A
102
{ACAD_REACTORS
330
12B87
102
}
330
1F
100
AcDbEntity
  8
Edelstahl 1500
  6
Continuous
 62
    84
100
AcDbCircle
 10
-1335.250000000001
 20
14982.75
 30
0.0
 40
1.0
100
AcDbArc
 50
180.0
 51
270.0
  0
LINE
  5
12B2B
102
{ACAD_REACTORS
330
12B87
102
}
330
1F
100
AcDbEntity
  8
Edelstahl 1500
  6
Continuous
 62
    84
100
AcDbLine
 10
-1399.585786437599
 20
14981.75
 30
0.0
 11
-1394.0
 21
14981.75
 31
0.0
  0
ARC
  5
12B2C
102
{ACAD_REACTORS
330
12B87
102
}
330
1F
100
AcDbEntity
  8
Edelstahl 1500
  6
Continuous
 62
    84
100
AcDbCircle
 10
-1386.000000000001
 20
14982.75
 30
0.0
 40
1.0
100
AcDbArc
 50
180.0
 51
270.0
  0
ARC
  5
12B2D
102
{ACAD_REACTORS
330
12B87
102
}
330
1F
100
AcDbEntity
  8
Edelstahl 1500
  6
Continuous
 62
    84
100
AcDbCircle
 10
-1394.000000000001
 20
14982.75
 30
0.0
 40
1.0
100
AcDbArc
 50
270.0
 51
0.0
  0
ARC
  5
12B2E
102
{ACAD_REACTORS
330
12B87
102
}
330
1F
100
AcDbEntity
  8
Edelstahl 1500
  6
Continuous
 62
    84
100
AcDbCircle
 10
-1394.000000000001
 20
15044.75
 30
0.0
 40
1.0
100
AcDbArc
 50
0.0
 51
90.0
  0
ARC
  5
12B2F
102
{ACAD_REACTORS
330
12B87
102
}
330
1F
100
AcDbEntity
  8
Edelstahl 1500
  6
Continuous
 62
    84
100
AcDbCircle
 10
-1386.000000000001
 20
15044.75
 30
0.0
 40
1.0
100
AcDbArc
 50
90.0
 51
180.0
  0
ARC
  5
12B30
102
{ACAD_REACTORS
330
12B87
102
}
330
1F
100
AcDbEntity
  8
Edelstahl 1500
  6
Continuous
 62
    84
100
AcDbCircle
 10
-1318.500000000001
 20
15004.75
 30
0.0
 40
1.0
100
AcDbArc
 50
270.0
 51
0.0
  0
ARC
  5
12B31
102
{ACAD_REACTORS
330
12B87
102
}
330
1F
100
AcDbEntity
  8
Edelstahl 1500
  6
Continuous
 62
    84
100
AcDbCircle
 10
-1336.500000000001
 20
15004.75
 30
0.0
 40
1.0
100
AcDbArc
 50
180.0
 51
270.0
  0
ARC
  5
12B32
102
{ACAD_REACTORS
330
12B87
102
}
330
1F
100
AcDbEntity
  8
Edelstahl 1500
  6
Continuous
 62
    84
100
AcDbCircle
 10
-1318.500000000001
 20
15028.75
 30
0.0
 40
1.0
100
AcDbArc
 50
0.0
 51
90.0
  0
ARC
  5
12B33
102
{ACAD_REACTORS
330
12B87
102
}
330
1F
100
AcDbEntity
  8
Edelstahl 1500
  6
Continuous
 62
    84
100
AcDbCircle
 10
-1336.500000000001
 20
15028.75
 30
0.0
 40
1.0
100
AcDbArc
 50
90.0
 51
180.0
  0
ARC
  5
12B34
102
{ACAD_REACTORS
330
12B87
102
}
330
1F
100
AcDbEntity
  8
Edelstahl 1500
  6
Continuous
 62
    84
100
AcDbCircle
 10
-1343.250000000001
 20
14982.75
 30
0.0
 40
1.0
100
AcDbArc
 50
270.0
 51
0.0
  0
ARC
  5
12B35
102
{ACAD_REACTORS
330
12B87
102
}
330
1F
100
AcDbEntity
  8
Edelstahl 1500
  6
Continuous
 62
    84
100
AcDbCircle
 10
-1324.250000000001
 20
15034.25
 30
0.0
 40
1.0
100
AcDbArc
 50
180.0
 51
270.0
  0
ARC
  5
12B36
102
{ACAD_REACTORS
330
12B87
102
}
330
1F
100
AcDbEntity
  8
Edelstahl 1500
  6
Continuous
 62
    84
100
AcDbCircle
 10
-1326.250000000001
 20
14982.75
 30
0.0
 40
1.0
100
AcDbArc
 50
270.0
 51
0.0
  0
ARC
  5
12B37
102
{ACAD_REACTORS
330
12B87
102
}
330
1F
100
AcDbEntity
  8
Edelstahl 1500
  6
Continuous
 62
    84
100
AcDbCircle
 10
-1326.250000000001
 20
15044.75
 30
0.0
 40
1.0
100
AcDbArc
 50
0.0
 51
90.0
  0
ARC
  5
12B38
102
{ACAD_REACTORS
330
12B87
102
}
330
1F
100
AcDbEntity
  8
Edelstahl 1500
  6
Continuous
 62
    84
100
AcDbCircle
 10
-1343.250000000001
 20
15044.75
 30
0.0
 40
1.0
100
AcDbArc
 50
0.0
 51
90.0
  0
LINE
  5
12B39
102
{ACAD_REACTORS
330
12B87
102
}
330
1F
100
AcDbEntity
  8
Edelstahl 1500
  6
Continuous
 62
    84
100
AcDbLine
 10
-1324.25
 20
15000.25
 30
0.0
 11
-1308.0
 21
15000.25
 31
0.0
  0
LINE
  5
12B3A
102
{ACAD_REACTORS
330
12B87
102
}
330
1F
100
AcDbEntity
  8
Edelstahl 1500
  6
Continuous
 62
    84
100
AcDbLine
 10
-1325.25
 20
14982.75
 30
0.0
 11
-1325.25
 21
14999.25
 31
0.0
  0
ARC
  5
12B3B
102
{ACAD_REACTORS
330
12B87
102
}
330
1F
100
AcDbEntity
  8
Edelstahl 1500
  6
Continuous
 62
    84
100
AcDbCircle
 10
-1390.000000000001
 20
14983.75
 30
0.0
 40
3.0
100
AcDbArc
 50
0.0
 51
180.0
  0
LINE
  5
12B3C
102
{ACAD_REACTORS
330
12B87
102
}
330
1F
100
AcDbEntity
  8
Edelstahl 1500
  6
Continuous
 62
    84
100
AcDbLine
 10
-1393.0
 20
14983.75
 30
0.0
 11
-1393.0
 21
14982.75
 31
0.0
  0
LINE
  5
12B3D
102
{ACAD_REACTORS
330
12B87
102
}
330
1F
100
AcDbEntity
  8
Edelstahl 1500
  6
Continuous
 62
    84
100
AcDbLine
 10
-1387.0
 20
14982.75
 30
0.0
 11
-1387.0
 21
14983.75
 31
0.0
  0
LINE
  5
12B3E
102
{ACAD_REACTORS
330
12B87
102
}
330
1F
100
AcDbEntity
  8
Edelstahl 1500
  6
Continuous
 62
    84
100
AcDbLine
 10
-1343.25
 20
14981.75
 30
0.0
 11
-1386.0
 21
14981.75
 31
0.0
  0
LINE
  5
12B3F
102
{ACAD_REACTORS
330
12B87
102
}
330
1F
100
AcDbEntity
  8
Edelstahl 1500
  6
Continuous
 62
    84
100
AcDbLine
 10
-1342.25
 20
14983.75
 30
0.0
 11
-1342.25
 21
14982.75
 31
0.0
  0
ARC
  5
12B40
102
{ACAD_REACTORS
330
12B87
102
}
330
1F
100
AcDbEntity
  8
Edelstahl 1500
  6
Continuous
 62
    84
100
AcDbCircle
 10
-1339.250000000001
 20
14983.75
 30
0.0
 40
3.0
100
AcDbArc
 50
0.0
 51
180.0
  0
LINE
  5
12B41
102
{ACAD_REACTORS
330
12B87
102
}
330
1F
100
AcDbEntity
  8
Edelstahl 1500
  6
Continuous
 62
    84
100
AcDbLine
 10
-1326.25
 20
14981.75
 30
0.0
 11
-1335.25
 21
14981.75
 31
0.0
  0
CIRCLE
  5
12B42
102
{ACAD_REACTORS
330
12B87
102
}
330
1F
100
AcDbEntity
  8
Edelstahl 1500
  6
Continuous
 62
    84
100
AcDbCircle
 10
-1333.250000000001
 20
14984.75
 30
0.0
 40
1.0
  0
CIRCLE
  5
12B43
102
{ACAD_REACTORS
330
12B87
102
}
330
1F
100
AcDbEntity
  8
Edelstahl 1500
  6
Continuous
 62
    84
100
AcDbCircle
 10
-1396.000000000001
 20
14984.75
 30
0.0
 40
1.0
  0
LINE
  5
12B44
102
{ACAD_REACTORS
330
12B87
102
}
330
1F
100
AcDbEntity
  8
Edelstahl 1500
  6
Continuous
 62
    84
100
AcDbLine
 10
-1317.5
 20
15028.75
 30
0.0
 11
-1317.5
 21
15004.75
 31
0.0
  0
LINE
  5
12B45
102
{ACAD_REACTORS
330
12B87
102
}
330
1F
100
AcDbEntity
  8
Edelstahl 1500
  6
Continuous
 62
    84
100
AcDbLine
 10
-1318.5
 20
15029.75
 30
0.0
 11
-1336.5
 21
15029.75
 31
0.0
  0
LINE
  5
12B46
102
{ACAD_REACTORS
330
12B87
102
}
330
1F
100
AcDbEntity
  8
Edelstahl 1500
  6
Continuous
 62
    84
100
AcDbLine
 10
-1337.5
 20
15028.75
 30
0.0
 11
-1337.5
 21
15004.75
 31
0.0
  0
LINE
  5
12B47
102
{ACAD_REACTORS
330
12B87
102
}
330
1F
100
AcDbEntity
  8
Edelstahl 1500
  6
Continuous
 62
    84
100
AcDbLine
 10
-1318.5
 20
15003.75
 30
0.0
 11
-1336.5
 21
15003.75
 31
0.0
  0
ARC
  5
12B48
102
{ACAD_REACTORS
330
12B87
102
}
330
1F
100
AcDbEntity
  8
Edelstahl 1500
  6
Continuous
 62
    84
100
AcDbCircle
 10
-1390.000000000001
 20
15043.75
 30
0.0
 40
3.0
100
AcDbArc
 50
180.0
 51
0.0
  0
LINE
  5
12B49
102
{ACAD_REACTORS
330
12B87
102
}
330
1F
100
AcDbEntity
  8
Edelstahl 1500
  6
Continuous
 62
    84
100
AcDbLine
 10
-1393.0
 20
15043.75
 30
0.0
 11
-1393.0
 21
15044.75
 31
0.0
  0
LINE
  5
12B4A
102
{ACAD_REACTORS
330
12B87
102
}
330
1F
100
AcDbEntity
  8
Edelstahl 1500
  6
Continuous
 62
    84
100
AcDbLine
 10
-1387.0
 20
15044.75
 30
0.0
 11
-1387.0
 21
15043.75
 31
0.0
  0
LINE
  5
12B4B
102
{ACAD_REACTORS
330
12B87
102
}
330
1F
100
AcDbEntity
  8
Edelstahl 1500
  6
Continuous
 62
    84
100
AcDbLine
 10
-1343.25
 20
15045.75
 30
0.0
 11
-1386.0
 21
15045.75
 31
0.0
  0
LINE
  5
12B4C
102
{ACAD_REACTORS
330
12B87
102
}
330
1F
100
AcDbEntity
  8
Edelstahl 1500
  6
Continuous
 62
    84
100
AcDbLine
 10
-1342.25
 20
15043.75
 30
0.0
 11
-1342.25
 21
15044.75
 31
0.0
  0
ARC
  5
12B4D
102
{ACAD_REACTORS
330
12B87
102
}
330
1F
100
AcDbEntity
  8
Edelstahl 1500
  6
Continuous
 62
    84
100
AcDbCircle
 10
-1339.250000000001
 20
15043.75
 30
0.0
 40
3.0
100
AcDbArc
 50
180.0
 51
0.0
  0
LINE
  5
12B4E
102
{ACAD_REACTORS
330
12B87
102
}
330
1F
100
AcDbEntity
  8
Edelstahl 1500
  6
Continuous
 62
    84
100
AcDbLine
 10
-1326.25
 20
15045.75
 30
0.0
 11
-1335.25
 21
15045.75
 31
0.0
  0
LINE
  5
12B4F
102
{ACAD_REACTORS
330
12B87
102
}
330
1F
100
AcDbEntity
  8
Edelstahl 1500
  6
Continuous
 62
    84
100
AcDbLine
 10
-1325.25
 20
15034.25
 30
0.0
 11
-1325.25
 21
15044.75
 31
0.0
  0
LINE
  5
12B50
102
{ACAD_REACTORS
330
12B87
102
}
330
1F
100
AcDbEntity
  8
Edelstahl 1500
  6
Continuous
 62
    84
100
AcDbLine
 10
-1308.0
 20
15033.25
 30
0.0
 11
-1324.25
 21
15033.25
 31
0.0
  0
LINE
  5
12B51
102
{ACAD_REACTORS
330
12B87
102
}
330
1F
100
AcDbEntity
  8
Edelstahl 1500
  6
Continuous
 62
    84
100
AcDbLine
 10
-1307.0
 20
15032.25
 30
0.0
 11
-1307.0
 21
15001.25
 31
0.0
  0
CIRCLE
  5
12B52
102
{ACAD_REACTORS
330
12B87
102
}
330
1F
100
AcDbEntity
  8
Edelstahl 1500
  6
Continuous
 62
    84
100
AcDbCircle
 10
-1333.250000000001
 20
15042.75
 30
0.0
 40
1.0
  0
CIRCLE
  5
12B53
102
{ACAD_REACTORS
330
12B87
102
}
330
1F
100
AcDbEntity
  8
Edelstahl 1500
  6
Continuous
 62
    84
100
AcDbCircle
 10
-1404.000000000001
 20
15013.75
 30
0.0
 40
1.0
  0
CIRCLE
  5
12B54
102
{ACAD_REACTORS
330
12B87
102
}
330
1F
100
AcDbEntity
  8
Edelstahl 1500
  6
Continuous
 62
    84
100
AcDbCircle
 10
-1334.500000000001
 20
14995.25
 30
0.0
 40
0.85
  0
CIRCLE
  5
12B55
102
{ACAD_REACTORS
330
12B87
102
}
330
1F
100
AcDbEntity
  8
Edelstahl 1500
  6
Continuous
 62
    84
100
AcDbCircle
 10
-1340.000000000001
 20
14999.25
 30
0.0
 40
0.85
  0
ARC
  5
12B5E
102
{ACAD_REACTORS
330
12B8D
102
}
330
1F
100
AcDbEntity
  8
Alu hart 1500
 62
     5
100
AcDbCircle
 10
-1363.500000000001
 20
15013.7500442915
 30
0.0
 40
4.0
100
AcDbArc
 50
270.0
 51
90.0
  0
ARC
  5
12B5F
102
{ACAD_REACTORS
330
12B8D
102
}
330
1F
100
AcDbEntity
  8
Alu hart 1500
  6
Continuous
 62
     5
100
AcDbCircle
 10
-1427.000000000001
 20
15032.7499557084
 30
0.0
 40
3.0
100
AcDbArc
 50
90.0
 51
206.5650511770663
  0
LINE
  5
12B60
102
{ACAD_REACTORS
330
12B8D
102
}
330
1F
100
AcDbEntity
  8
Alu hart 1500
 62
     5
100
AcDbLine
 10
-1429.683281573001
 20
15031.4083149219
 30
0.0
 11
-1424.683281573001
 21
15021.4083149219
 31
0.0
  0
ARC
  5
12B61
102
{ACAD_REACTORS
330
12B8D
102
}
330
1F
100
AcDbEntity
  8
Alu hart 1500
  6
Continuous
 62
     5
100
AcDbCircle
 10
-1422.000000000001
 20
15022.7499557084
 30
0.0
 40
1.0
100
AcDbArc
 50
90.0
 51
270.0
  0
ARC
  5
12B62
102
{ACAD_REACTORS
330
12B8D
102
}
330
1F
100
AcDbEntity
  8
Alu hart 1500
  6
Continuous
 62
     5
100
AcDbCircle
 10
-1422.000000000001
 20
15022.7499557084
 30
0.0
 40
3.0
100
AcDbArc
 50
206.5650511770663
 51
270.0
  0
ARC
  5
12B63
102
{ACAD_REACTORS
330
12B8D
102
}
330
1F
100
AcDbEntity
  8
Alu hart 1500
  6
Continuous
 62
     5
100
AcDbCircle
 10
-1412.000000000001
 20
15022.7499557084
 30
0.0
 40
1.0
100
AcDbArc
 50
270.0
 51
90.0
  0
LINE
  5
12B64
102
{ACAD_REACTORS
330
12B8D
102
}
330
1F
100
AcDbEntity
  8
Alu hart 1500
  6
Continuous
 62
     5
100
AcDbLine
 10
-1422.0
 20
15023.7499557084
 30
0.0
 11
-1412.0
 21
15023.7499557084
 31
0.0
  0
LINE
  5
12B65
102
{ACAD_REACTORS
330
12B8D
102
}
330
1F
100
AcDbEntity
  8
Alu hart 1500
  6
Continuous
 62
     5
100
AcDbLine
 10
-1412.0
 20
15021.7499557084
 30
0.0
 11
-1422.0
 21
15021.7499557084
 31
0.0
  0
ARC
  5
12B66
102
{ACAD_REACTORS
330
12B8D
102
}
330
1F
100
AcDbEntity
  8
Alu hart 1500
 62
     5
100
AcDbCircle
 10
-1409.500000000001
 20
15018.7499557084
 30
0.0
 40
1.0
100
AcDbArc
 50
0.0
 51
90.0
  0
LINE
  5
12B67
102
{ACAD_REACTORS
330
12B8D
102
}
330
1F
100
AcDbEntity
  8
Alu hart 1500
 62
     5
100
AcDbLine
 10
-1422.0
 20
15019.7499557084
 30
0.0
 11
-1409.5
 21
15019.7499557084
 31
0.0
  0
ARC
  5
12B68
102
{ACAD_REACTORS
330
12B8D
102
}
330
1F
100
AcDbEntity
  8
Alu hart 1500
  6
Continuous
 62
     5
100
AcDbCircle
 10
-1427.000000000001
 20
15032.7499557084
 30
0.0
 40
1.0
100
AcDbArc
 50
90.0
 51
270.0
  0
ARC
  5
12B69
102
{ACAD_REACTORS
330
12B8D
102
}
330
1F
100
AcDbEntity
  8
Alu hart 1500
  6
Continuous
 62
     5
100
AcDbCircle
 10
-1417.000000000001
 20
15032.7499557084
 30
0.0
 40
1.0
100
AcDbArc
 50
270.0
 51
90.0
  0
LINE
  5
12B6A
102
{ACAD_REACTORS
330
12B8D
102
}
330
1F
100
AcDbEntity
  8
Alu hart 1500
  6
Continuous
 62
     5
100
AcDbLine
 10
-1427.0
 20
15033.7499557084
 30
0.0
 11
-1417.0
 21
15033.7499557084
 31
0.0
  0
LINE
  5
12B6B
102
{ACAD_REACTORS
330
12B8D
102
}
330
1F
100
AcDbEntity
  8
Alu hart 1500
  6
Continuous
 62
     5
100
AcDbLine
 10
-1417.0
 20
15031.7499557084
 30
0.0
 11
-1427.0
 21
15031.7499557084
 31
0.0
  0
LINE
  5
12B6C
102
{ACAD_REACTORS
330
12B8D
102
}
330
1F
100
AcDbEntity
  8
Alu hart 1500
 62
     5
100
AcDbLine
 10
-1394.958547012626
 20
15035.75007952358
 30
0.0
 11
-1427.0
 21
15035.7499557084
 31
0.0
  0
ARC
  5
12B6D
102
{ACAD_REACTORS
330
12B8D
102
}
330
1F
100
AcDbEntity
  8
Alu hart 1500
  6
Continuous
 62
     5
100
AcDbCircle
 10
-1427.000000000001
 20
14994.7500442915
 30
0.0
 40
3.0
100
AcDbArc
 50
153.4349488229336
 51
270.0
  0
LINE
  5
12B6E
102
{ACAD_REACTORS
330
12B8D
102
}
330
1F
100
AcDbEntity
  8
Alu hart 1500
 62
     5
100
AcDbLine
 10
-1429.683281573001
 20
14996.091685078
 30
0.0
 11
-1424.683281573001
 21
15006.091685078
 31
0.0
  0
ARC
  5
12B6F
102
{ACAD_REACTORS
330
12B8D
102
}
330
1F
100
AcDbEntity
  8
Alu hart 1500
  6
Continuous
 62
     5
100
AcDbCircle
 10
-1422.000000000001
 20
15004.7500442915
 30
0.0
 40
1.0
100
AcDbArc
 50
90.0
 51
270.0
  0
ARC
  5
12B70
102
{ACAD_REACTORS
330
12B8D
102
}
330
1F
100
AcDbEntity
  8
Alu hart 1500
 62
     5
100
AcDbCircle
 10
-1374.500000000001
 20
15013.7500442915
 30
0.0
 40
1.6
100
AcDbArc
 50
90.0
 51
270.0
  0
CIRCLE
  5
12B71
102
{ACAD_REACTORS
330
12B8D
102
}
330
1F
100
AcDbEntity
  8
Alu hart 1500
 62
     5
100
AcDbCircle
 10
-1394.000000000001
 20
15013.75
 30
0.0
 40
1.6
  0
ARC
  5
12B72
102
{ACAD_REACTORS
330
12B8D
102
}
330
1F
100
AcDbEntity
  8
Alu hart 1500
  6
Continuous
 62
     5
100
AcDbCircle
 10
-1422.000000000001
 20
15004.7500442915
 30
0.0
 40
3.0
100
AcDbArc
 50
90.0
 51
153.4349488229336
  0
ARC
  5
12B73
102
{ACAD_REACTORS
330
12B8D
102
}
330
1F
100
AcDbEntity
  8
Alu hart 1500
  6
Continuous
 62
     5
100
AcDbCircle
 10
-1412.000000000001
 20
15004.7500442915
 30
0.0
 40
1.0
100
AcDbArc
 50
270.0
 51
90.0
  0
LINE
  5
12B74
102
{ACAD_REACTORS
330
12B8D
102
}
330
1F
100
AcDbEntity
  8
Alu hart 1500
  6
Continuous
 62
     5
100
AcDbLine
 10
-1422.0
 20
15003.7500442915
 30
0.0
 11
-1412.0
 21
15003.7500442915
 31
0.0
  0
LINE
  5
12B75
102
{ACAD_REACTORS
330
12B8D
102
}
330
1F
100
AcDbEntity
  8
Alu hart 1500
  6
Continuous
 62
     5
100
AcDbLine
 10
-1412.0
 20
15005.7500442915
 30
0.0
 11
-1422.0
 21
15005.7500442915
 31
0.0
  0
ARC
  5
12B76
102
{ACAD_REACTORS
330
12B8D
102
}
330
1F
100
AcDbEntity
  8
Alu hart 1500
 62
     5
100
AcDbCircle
 10
-1409.500000000001
 20
15008.7500442915
 30
0.0
 40
1.0
100
AcDbArc
 50
270.0
 51
0.0
  0
LINE
  5
12B77
102
{ACAD_REACTORS
330
12B8D
102
}
330
1F
100
AcDbEntity
  8
Alu hart 1500
 62
     5
100
AcDbLine
 10
-1408.5
 20
15008.7500442915
 30
0.0
 11
-1408.5
 21
15018.7500442915
 31
0.0
  0
LINE
  5
12B78
102
{ACAD_REACTORS
330
12B8D
102
}
330
1F
100
AcDbEntity
  8
Alu hart 1500
 62
     5
100
AcDbLine
 10
-1422.0
 20
15007.7500442915
 30
0.0
 11
-1409.5
 21
15007.7500442915
 31
0.0
  0
ARC
  5
12B79
102
{ACAD_REACTORS
330
12B8D
102
}
330
1F
100
AcDbEntity
  8
Alu hart 1500
  6
Continuous
 62
     5
100
AcDbCircle
 10
-1427.000000000001
 20
14994.7500442915
 30
0.0
 40
1.0
100
AcDbArc
 50
90.0
 51
270.0
  0
ARC
  5
12B7A
102
{ACAD_REACTORS
330
12B8D
102
}
330
1F
100
AcDbEntity
  8
Alu hart 1500
  6
Continuous
 62
     5
100
AcDbCircle
 10
-1417.000000000001
 20
14994.7500442915
 30
0.0
 40
1.0
100
AcDbArc
 50
270.0
 51
90.0
  0
LINE
  5
12B7B
102
{ACAD_REACTORS
330
12B8D
102
}
330
1F
100
AcDbEntity
  8
Alu hart 1500
  6
Continuous
 62
     5
100
AcDbLine
 10
-1427.0
 20
14993.7500442915
 30
0.0
 11
-1417.0
 21
14993.7500442915
 31
0.0
  0
LINE
  5
12B7C
102
{ACAD_REACTORS
330
12B8D
102
}
330
1F
100
AcDbEntity
  8
Alu hart 1500
  6
Continuous
 62
     5
100
AcDbLine
 10
-1417.0
 20
14995.7500442915
 30
0.0
 11
-1427.0
 21
14995.7500442915
 31
0.0
  0
CIRCLE
  5
12B7D
102
{ACAD_REACTORS
330
12B8D
102
}
330
1F
100
AcDbEntity
  8
Alu hart 1500
 62
     5
100
AcDbCircle
 10
-1404.000000000001
 20
15013.75
 30
0.0
 40
1.6
  0
ARC
  5
12B7E
102
{ACAD_REACTORS
330
12B8D
102
}
330
1F
100
AcDbEntity
  8
Alu hart 1500
 62
     5
100
AcDbCircle
 10
-1363.500000000001
 20
15013.7500442915
 30
0.0
 40
1.6
100
AcDbArc
 50
270.0
 51
90.0
  0
LINE
  5
12B7F
102
{ACAD_REACTORS
330
12B8D
102
}
330
1F
100
AcDbEntity
  8
Alu hart 1500
100
AcDbLine
 10
-1374.500000000001
 20
15015.3500442915
 30
0.0
 11
-1363.500000000001
 21
15015.3500442915
 31
0.0
  0
LINE
  5
12B80
102
{ACAD_REACTORS
330
12B8D
102
}
330
1F
100
AcDbEntity
  8
Alu hart 1500
100
AcDbLine
 10
-1374.500000000001
 20
15012.1500442915
 30
0.0
 11
-1363.500000000001
 21
15012.1500442915
 31
0.0
  0
SPLINE
  5
12B81
102
{ACAD_REACTORS
330
12B8D
102
}
330
1F
100
AcDbEntity
  8
Alu hart 1500
100
AcDbSpline
210
0.0
220
0.0
230
1.0
 70
     8
 71
     3
 72
     8
 73
     4
 74
     0
 42
0.0000000001
 43
0.0000000001
 40
0.9284915733304544
 40
0.9284915733304544
 40
0.9284915733304544
 40
0.9284915733304544
 40
35.63092056065911
 40
35.63092056065911
 40
35.63092056065911
 40
35.63092056065911
 10
-1393.96201056149
 20
15034.8332366133
 30
0.0
 10
-1393.021141728106
 20
15023.55806944067
 30
0.0
 10
-1374.817476329109
 20
15017.75
 30
0.0
 10
-1363.500000000001
 20
15017.7500442915
 30
0.0
  0
ARC
  5
12B82
102
{ACAD_REACTORS
330
12B8D
102
}
330
1F
100
AcDbEntity
  8
Alu hart 1500
100
AcDbCircle
 10
-1394.958547012626
 20
15034.75007952357
 30
0.0
 40
1.0
100
AcDbArc
 50
4.770058661267881
 51
89.99999999959614
  0
LINE
  5
12B83
102
{ACAD_REACTORS
330
12B8D
102
}
330
1F
100
AcDbEntity
  8
Alu hart 1500
 62
     5
100
AcDbLine
 10
-1394.958547012626
 20
14991.75000905941
 30
0.0
 11
-1427.0
 21
14991.7501328746
 31
0.0
  0
SPLINE
  5
12B84
102
{ACAD_REACTORS
330
12B8D
102
}
330
1F
100
AcDbEntity
  8
Alu hart 1500
100
AcDbSpline
210
0.0
220
0.0
230
1.0
 70
     8
 71
     3
 72
     8
 73
     4
 74
     0
 42
0.0000000001
 43
0.0000000001
 40
0.9284915733304544
 40
0.9284915733304544
 40
0.9284915733304544
 40
0.9284915733304544
 40
35.63092056065911
 40
35.63092056065911
 40
35.63092056065911
 40
35.63092056065911
 10
-1393.96201056149
 20
14992.66685196969
 30
0.0
 10
-1393.021141728106
 20
15003.94201914233
 30
0.0
 10
-1374.817476329109
 20
15009.750088583
 30
0.0
 10
-1363.500000000001
 20
15009.7500442915
 30
0.0
  0
ARC
  5
12B85
102
{ACAD_REACTORS
330
12B8D
102
}
330
1F
100
AcDbEntity
  8
Alu hart 1500
100
AcDbCircle
 10
-1394.958547012626
 20
14992.75000905942
 30
0.0
 40
1.0
100
AcDbArc
 50
270.0000000004039
 51
355.2299413387321
  0
CIRCLE
  5
12B9A
102
{ACAD_REACTORS
330
12BF0
102
}
330
1F
100
AcDbEntity
  8
Edelstahl 1500
  6
Continuous
 62
    84
100
AcDbCircle
 10
-1412.000000000001
 20
15004.7500442915
 30
0.0
 40
0.85
  0
CIRCLE
  5
12B9B
102
{ACAD_REACTORS
330
12BF0
102
}
330
1F
100
AcDbEntity
  8
Edelstahl 1500
  6
Continuous
 62
    84
100
AcDbCircle
 10
-1412.000000000001
 20
15022.7499557084
 30
0.0
 40
0.85
  0
CIRCLE
  5
12B9C
102
{ACAD_REACTORS
330
12BF0
102
}
330
1F
100
AcDbEntity
  8
Edelstahl 1500
  6
Continuous
 62
    84
100
AcDbCircle
 10
-1417.000000000001
 20
15032.7499300842
 30
0.0
 40
0.85
  0
CIRCLE
  5
12B9D
102
{ACAD_REACTORS
330
12BF0
102
}
330
1F
100
AcDbEntity
  8
Edelstahl 1500
  6
Continuous
 62
    84
100
AcDbCircle
 10
-1412.000000000001
 20
15013.7499790192
 30
0.0
 40
1.0
  0
CIRCLE
  5
12B9E
102
{ACAD_REACTORS
330
12BF0
102
}
330
1F
100
AcDbEntity
  8
Edelstahl 1500
  6
Continuous
 62
    84
100
AcDbCircle
 10
-1417.000000000001
 20
15013.7499790192
 30
0.0
 40
1.0
  0
CIRCLE
  5
12B9F
102
{ACAD_REACTORS
330
12BF0
102
}
330
1F
100
AcDbEntity
  8
Edelstahl 1500
  6
Continuous
 62
    84
100
AcDbCircle
 10
-1417.000000000001
 20
14994.7500442915
 30
0.0
 40
0.85
  0
LINE
  5
12BA0
102
{ACAD_REACTORS
330
12BF0
102
}
330
1F
100
AcDbEntity
  8
Edelstahl 1500
 62
    84
100
AcDbLine
 10
-1410.000000000001
 20
15043.2499871879
 30
0.0
 11
-1410.000000000001
 21
14984.2499871879
 31
0.0
  0
ARC
  5
12BA1
102
{ACAD_REACTORS
330
12BF0
102
}
330
1F
100
AcDbEntity
  8
Edelstahl 1500
 62
    84
100
AcDbCircle
 10
-1414.500000000001
 20
15043.2499871879
 30
0.0
 40
4.5
100
AcDbArc
 50
0.0
 51
180.0
  0
CIRCLE
  5
12BA2
102
{ACAD_REACTORS
330
12BF0
102
}
330
1F
100
AcDbEntity
  8
Edelstahl 1500
 62
    84
100
AcDbCircle
 10
-1414.500000000001
 20
15043.2499871879
 30
0.0
 40
3.0
  0
LINE
  5
12BA3
102
{ACAD_REACTORS
330
12BF0
102
}
330
1F
100
AcDbEntity
  8
Edelstahl 1500
 62
    84
100
AcDbLine
 10
-1419.000000000001
 20
15043.2499871879
 30
0.0
 11
-1419.0
 21
14984.2499871879
 31
0.0
  0
LINE
  5
12BA4
102
{ACAD_REACTORS
330
12BF0
102
}
330
1F
100
AcDbEntity
  8
Edelstahl 1500
 62
    84
100
AcDbLine
 10
-1417.5
 20
14989.75
 30
0.0
 11
-1411.5
 21
14989.75
 31
0.0
  0
LINE
  5
12BA5
102
{ACAD_REACTORS
330
12BF0
102
}
330
1F
100
AcDbEntity
  8
Edelstahl 1500
 62
    84
100
AcDbLine
 10
-1417.5
 20
15037.75
 30
0.0
 11
-1411.5
 21
15037.75
 31
0.0
  0
ARC
  5
12BA6
102
{ACAD_REACTORS
330
12BF0
102
}
330
1F
100
AcDbEntity
  8
Edelstahl 1500
 62
    84
100
AcDbCircle
 10
-1414.500000000001
 20
14984.2499871879
 30
0.0
 40
4.5
100
AcDbArc
 50
180.0
 51
0.0
  0
CIRCLE
  5
12BA7
102
{ACAD_REACTORS
330
12BF0
102
}
330
1F
100
AcDbEntity
  8
Edelstahl 1500
 62
    84
100
AcDbCircle
 10
-1414.500000000001
 20
14984.2499871879
 30
0.0
 40
3.0
  0
LINE
  5
12BCF
102
{ACAD_REACTORS
330
12BD8
102
}
330
1F
100
AcDbEntity
  8
Messing 2000
100
AcDbLine
 10
-1307.0
 20
15033.25
 30
0.0
 11
-1310.243243243244
 21
15042.70945945946
 31
0.0
  0
ARC
  5
12BD1
102
{ACAD_REACTORS
330
12BD8
102
}
330
1F
100
AcDbEntity
  8
Edelstahl 1500
 62
    84
100
AcDbCircle
 10
-1314.500000000001
 20
15041.25
 30
0.0
 40
4.5
100
AcDbArc
 50
18.92464441605781
 51
250.5287793654709
  0
LINE
  5
12BD3
102
{ACAD_REACTORS
330
12BD8
102
}
330
1F
100
AcDbEntity
  8
Messing 2000
100
AcDbLine
 10
-1307.0
 20
15000.25
 30
0.0
 11
-1310.243243243244
 21
14990.79054054054
 31
0.0
  0
VIEWPORT
  5
227
330
55
100
AcDbEntity
 67
     1
  8
0
100
AcDbViewport
 10
4.750000360443835
 20
4.218742623849558
 30
0.0
 40
18.37785133230805
 41
9.430485226252713
 68
     2
 69
     1
 12
4.750000360443835
 22
4.218742623849558
 13
0.0
 23
0.0
 14
10.0
 24
10.0
 15
10.0
 25
10.0
 16
0.0
 26
0.0
 36
1.0
 17
0.0
 27
0.0
 37
0.0
 42
50.0
 43
0.0
 44
0.0
 45
9.430485226252713
 50
0.0
 51
0.0
 72
  1000
 90
    32800
  1

281
     0
 71
     1
 74
     0
110
0.0
120
0.0
130
0.0
111
1.0
121
0.0
131
0.0
112
0.0
122
1.0
132
0.0
 79
     0
146
0.0
170
     0
  0
VIEWPORT
  5
229
330
55
100
AcDbEntity
 67
     1
  8
0
100
AcDbViewport
 10
4.750000135166438
 20
3.999999761581419
 30
0.0
 40
7.600000216266299
 41
6.399999618530272
 68
     1
 69
     2
 12
221.7189760292678
 22
147.5029914130026
 13
0.0
 23
0.0
 14
2.5
 24
2.5
 15
2.5
 25
2.5
 16
0.0
 26
0.0
 36
1.0
 17
0.0
 27
0.0
 37
0.0
 42
50.0
 43
0.0
 44
0.0
 45
353.6078770487538
 50
0.0
 51
0.0
 72
  1000
 90
    33632
  1

281
     0
 71
     1
 74
     0
110
0.0
120
0.0
130
0.0
111
1.0
121
0.0
131
0.0
112
0.0
122
1.0
132
0.0
 79
     0
146
0.0
170
     0
  0
ENDSEC
  0
SECTION
  2
OBJECTS
  0
DICTIONARY
  5
C
330
0
100
AcDbDictionary
281
     1
  3
ACAD_COLOR
350
6B
  3
ACAD_GROUP
350
D
  3
ACAD_LAYOUT
350
1A
  3
ACAD_MATERIAL
350
6A
  3
ACAD_MLINESTYLE
350
17
  3
ACAD_PLOTSETTINGS
350
19
  3
ACAD_PLOTSTYLENAME
350
E
  3
ACAD_TABLESTYLE
350
11339
  3
AcDbVariableDictionary
350
5E
  0
DICTIONARY
  5
F3AF
330
2
100
AcDbDictionary
280
     1
281
     1
  3
ACAD_LAYERFILTERS
360
11E55
  3
ACAD_LAYERSTATES
360
F3B0
  0
DICTIONARY
  5
D7
330
1F
100
AcDbDictionary
280
     1
281
     1
  3
ACAD_SORTENTS
360
D8
  0
DICTIONARY
  5
75A8
330
75A6
100
AcDbDictionary
280
     1
281
     1
  3
ACAD_SORTENTS
360
75A9
  0
DICTIONARY
  5
F2D9
330
F2D3
100
AcDbDictionary
280
     1
281
     1
  0
DICTIONARY
  5
F2E2
330
F2DC
100
AcDbDictionary
280
     1
281
     1
  0
DICTIONARY
  5
10696
330
1068D
100
AcDbDictionary
280
     1
281
     1
  3
ACAD_SORTENTS
360
10697
  0
DICTIONARY
  5
EC19
330
EC18
100
AcDbDictionary
280
     1
281
     1
  3
TC_EXTENDED_DATA
360
EC1A
  0
DICTIONARY
  5
EC1C
330
EC1B
100
AcDbDictionary
280
     1
281
     1
  3
TC_EXTENDED_DATA
360
EC1D
  0
DICTIONARY
  5
EC1F
330
EC1E
100
AcDbDictionary
280
     1
281
     1
  3
TC_EXTENDED_DATA
360
EC20
  0
DICTIONARY
  5
EC22
330
EC21
100
AcDbDictionary
280
     1
281
     1
  3
TC_EXTENDED_DATA
360
EC23
  0
DICTIONARY
  5
EC25
330
EC24
100
AcDbDictionary
280
     1
281
     1
  3
TC_EXTENDED_DATA
360
EC26
  0
DICTIONARY
  5
EC28
330
EC27
100
AcDbDictionary
280
     1
281
     1
  3
TC_EXTENDED_DATA
360
EC29
  0
DICTIONARY
  5
EC2B
330
EC2A
100
AcDbDictionary
280
     1
281
     1
  3
TC_EXTENDED_DATA
360
EC2C
  0
DICTIONARY
  5
EC2E
330
EC2D
100
AcDbDictionary
280
     1
281
     1
  3
TC_EXTENDED_DATA
360
EC2F
  0
DICTIONARY
  5
EC31
330
EC30
100
AcDbDictionary
280
     1
281
     1
  3
TC_EXTENDED_DATA
360
EC32
  0
DICTIONARY
  5
EC37
330
EC36
100
AcDbDictionary
280
     1
281
     1
  3
TC_EXTENDED_DATA
360
EC38
  0
DICTIONARY
  5
EC3A
330
EC39
100
AcDbDictionary
280
     1
281
     1
  3
TC_EXTENDED_DATA
360
EC3B
  0
DICTIONARY
  5
EC3D
330
EC3C
100
AcDbDictionary
280
     1
281
     1
  3
TC_EXTENDED_DATA
360
EC3E
  0
DICTIONARY
  5
EC40
330
EC3F
100
AcDbDictionary
280
     1
281
     1
  3
TC_EXTENDED_DATA
360
EC41
  0
DICTIONARY
  5
EC43
330
EC42
100
AcDbDictionary
280
     1
281
     1
  3
TC_EXTENDED_DATA
360
EC44
  0
DICTIONARY
  5
EC46
330
EC45
100
AcDbDictionary
280
     1
281
     1
  3
TC_EXTENDED_DATA
360
EC47
  0
DICTIONARY
  5
EC49
330
EC48
100
AcDbDictionary
280
     1
281
     1
  3
TC_EXTENDED_DATA
360
EC4A
  0
DICTIONARY
  5
EC4C
330
EC4B
100
AcDbDictionary
280
     1
281
     1
  3
TC_EXTENDED_DATA
360
EC4D
  0
DICTIONARY
  5
EC4F
330
EC4E
100
AcDbDictionary
280
     1
281
     1
  3
TC_EXTENDED_DATA
360
EC50
  0
DICTIONARY
  5
EC52
330
EC51
100
AcDbDictionary
280
     1
281
     1
  3
TC_EXTENDED_DATA
360
EC53
  0
DICTIONARY
  5
EC55
330
EC54
100
AcDbDictionary
280
     1
281
     1
  3
TC_EXTENDED_DATA
360
EC56
  0
DICTIONARY
  5
EC58
330
EC57
100
AcDbDictionary
280
     1
281
     1
  3
TC_EXTENDED_DATA
360
EC59
  0
DICTIONARY
  5
EC5B
330
EC5A
100
AcDbDictionary
280
     1
281
     1
  3
TC_EXTENDED_DATA
360
EC5C
  0
DICTIONARY
  5
EC5E
330
EC5D
100
AcDbDictionary
280
     1
281
     1
  3
TC_EXTENDED_DATA
360
EC5F
  0
DICTIONARY
  5
EC61
330
EC60
100
AcDbDictionary
280
     1
281
     1
  3
TC_EXTENDED_DATA
360
EC62
  0
DICTIONARY
  5
EC64
330
EC63
100
AcDbDictionary
280
     1
281
     1
  3
TC_EXTENDED_DATA
360
EC65
  0
DICTIONARY
  5
EC67
330
EC66
100
AcDbDictionary
280
     1
281
     1
  3
TC_EXTENDED_DATA
360
EC68
  0
DICTIONARY
  5
EC6A
330
EC69
100
AcDbDictionary
280
     1
281
     1
  3
TC_EXTENDED_DATA
360
EC6B
  0
DICTIONARY
  5
EC6D
330
EC6C
100
AcDbDictionary
280
     1
281
     1
  3
TC_EXTENDED_DATA
360
EC6E
  0
DICTIONARY
  5
EC70
330
EC6F
100
AcDbDictionary
280
     1
281
     1
  3
TC_EXTENDED_DATA
360
EC71
  0
DICTIONARY
  5
EC73
330
EC72
100
AcDbDictionary
280
     1
281
     1
  3
TC_EXTENDED_DATA
360
EC74
  0
DICTIONARY
  5
EC76
330
EC75
100
AcDbDictionary
280
     1
281
     1
  3
TC_EXTENDED_DATA
360
EC77
  0
DICTIONARY
  5
EC79
330
EC78
100
AcDbDictionary
280
     1
281
     1
  3
TC_EXTENDED_DATA
360
EC7A
  0
DICTIONARY
  5
EC7F
330
EC7E
100
AcDbDictionary
280
     1
281
     1
  3
TC_EXTENDED_DATA
360
EC80
  0
DICTIONARY
  5
EC82
330
EC81
100
AcDbDictionary
280
     1
281
     1
  3
TC_EXTENDED_DATA
360
EC83
  0
DICTIONARY
  5
EC85
330
EC84
100
AcDbDictionary
280
     1
281
     1
  3
TC_EXTENDED_DATA
360
EC86
  0
DICTIONARY
  5
EC88
330
EC87
100
AcDbDictionary
280
     1
281
     1
  3
TC_EXTENDED_DATA
360
EC89
  0
DICTIONARY
  5
EC8B
330
EC8A
100
AcDbDictionary
280
     1
281
     1
  3
TC_EXTENDED_DATA
360
EC8C
  0
DICTIONARY
  5
EC91
330
EC90
100
AcDbDictionary
280
     1
281
     1
  3
TC_EXTENDED_DATA
360
EC92
  0
DICTIONARY
  5
EC94
330
EC93
100
AcDbDictionary
280
     1
281
     1
  3
TC_EXTENDED_DATA
360
EC95
  0
DICTIONARY
  5
EC97
330
EC96
100
AcDbDictionary
280
     1
281
     1
  3
TC_EXTENDED_DATA
360
EC98
  0
DICTIONARY
  5
EC9A
330
EC99
100
AcDbDictionary
280
     1
281
     1
  3
TC_EXTENDED_DATA
360
EC9B
  0
DICTIONARY
  5
EC9D
330
EC9C
100
AcDbDictionary
280
     1
281
     1
  3
TC_EXTENDED_DATA
360
EC9E
  0
DICTIONARY
  5
ECA0
330
EC9F
100
AcDbDictionary
280
     1
281
     1
  3
TC_EXTENDED_DATA
360
ECA1
  0
DICTIONARY
  5
ECA3
330
ECA2
100
AcDbDictionary
280
     1
281
     1
  3
TC_EXTENDED_DATA
360
ECA4
  0
DICTIONARY
  5
ECA6
330
ECA5
100
AcDbDictionary
280
     1
281
     1
  3
TC_EXTENDED_DATA
360
ECA7
  0
DICTIONARY
  5
ECA9
330
ECA8
100
AcDbDictionary
280
     1
281
     1
  3
TC_EXTENDED_DATA
360
ECAA
  0
DICTIONARY
  5
ECAC
330
ECAB
100
AcDbDictionary
280
     1
281
     1
  3
TC_EXTENDED_DATA
360
ECAD
  0
DICTIONARY
  5
ECAF
330
ECAE
100
AcDbDictionary
280
     1
281
     1
  3
TC_EXTENDED_DATA
360
ECB0
  0
DICTIONARY
  5
ECB2
330
ECB1
100
AcDbDictionary
280
     1
281
     1
  3
TC_EXTENDED_DATA
360
ECB3
  0
DICTIONARY
  5
ECB5
330
ECB4
100
AcDbDictionary
280
     1
281
     1
  3
TC_EXTENDED_DATA
360
ECB6
  0
DICTIONARY
  5
ECB8
330
ECB7
100
AcDbDictionary
280
     1
281
     1
  3
TC_EXTENDED_DATA
360
ECB9
  0
DICTIONARY
  5
ECBB
330
ECBA
100
AcDbDictionary
280
     1
281
     1
  3
TC_EXTENDED_DATA
360
ECBC
  0
DICTIONARY
  5
ECBE
330
ECBD
100
AcDbDictionary
280
     1
281
     1
  3
TC_EXTENDED_DATA
360
ECBF
  0
DICTIONARY
  5
ECC1
330
ECC0
100
AcDbDictionary
280
     1
281
     1
  3
TC_EXTENDED_DATA
360
ECC2
  0
DICTIONARY
  5
ECC4
330
ECC3
100
AcDbDictionary
280
     1
281
     1
  3
TC_EXTENDED_DATA
360
ECC5
  0
DICTIONARY
  5
ECC7
330
ECC6
100
AcDbDictionary
280
     1
281
     1
  3
TC_EXTENDED_DATA
360
ECC8
  0
DICTIONARY
  5
ECCA
330
ECC9
100
AcDbDictionary
280
     1
281
     1
  3
TC_EXTENDED_DATA
360
ECCB
  0
DICTIONARY
  5
ECCD
330
ECCC
100
AcDbDictionary
280
     1
281
     1
  3
TC_EXTENDED_DATA
360
ECCE
  0
DICTIONARY
  5
ECD0
330
ECCF
100
AcDbDictionary
280
     1
281
     1
  3
TC_EXTENDED_DATA
360
ECD1
  0
DICTIONARY
  5
ECD3
330
ECD2
100
AcDbDictionary
280
     1
281
     1
  3
TC_EXTENDED_DATA
360
ECD4
  0
DICTIONARY
  5
ECD6
330
ECD5
100
AcDbDictionary
280
     1
281
     1
  3
TC_EXTENDED_DATA
360
ECD7
  0
DICTIONARY
  5
ECDC
330
ECDB
100
AcDbDictionary
280
     1
281
     1
  3
TC_EXTENDED_DATA
360
ECDD
  0
DICTIONARY
  5
ECE1
330
ECE0
100
AcDbDictionary
280
     1
281
     1
  3
TC_EXTENDED_DATA
360
ECE2
  0
DICTIONARY
  5
ECE4
330
ECE3
100
AcDbDictionary
280
     1
281
     1
  3
TC_EXTENDED_DATA
360
ECE5
  0
DICTIONARY
  5
ECE7
330
ECE6
100
AcDbDictionary
280
     1
281
     1
  3
TC_EXTENDED_DATA
360
ECE8
  0
DICTIONARY
  5
ECEA
330
ECE9
100
AcDbDictionary
280
     1
281
     1
  3
TC_EXTENDED_DATA
360
ECEB
  0
DICTIONARY
  5
ECED
330
ECEC
100
AcDbDictionary
280
     1
281
     1
  3
TC_EXTENDED_DATA
360
ECEE
  0
DICTIONARY
  5
ECF0
330
ECEF
100
AcDbDictionary
280
     1
281
     1
  3
TC_EXTENDED_DATA
360
ECF1
  0
DICTIONARY
  5
ECF3
330
ECF2
100
AcDbDictionary
280
     1
281
     1
  3
TC_EXTENDED_DATA
360
ECF4
  0
DICTIONARY
  5
ECF6
330
ECF5
100
AcDbDictionary
280
     1
281
     1
  3
TC_EXTENDED_DATA
360
ECF7
  0
DICTIONARY
  5
ECFB
330
ECFA
100
AcDbDictionary
280
     1
281
     1
  3
TC_EXTENDED_DATA
360
ECFC
  0
DICTIONARY
  5
ECFE
330
ECFD
100
AcDbDictionary
280
     1
281
     1
  3
TC_EXTENDED_DATA
360
ECFF
  0
DICTIONARY
  5
ED01
330
ED00
100
AcDbDictionary
280
     1
281
     1
  3
TC_EXTENDED_DATA
360
ED02
  0
DICTIONARY
  5
ED04
330
ED03
100
AcDbDictionary
280
     1
281
     1
  3
TC_EXTENDED_DATA
360
ED05
  0
DICTIONARY
  5
ED08
330
ED07
100
AcDbDictionary
280
     1
281
     1
  3
TC_EXTENDED_DATA
360
ED09
  0
DICTIONARY
  5
ED0B
330
ED0A
100
AcDbDictionary
280
     1
281
     1
  3
TC_EXTENDED_DATA
360
ED0C
  0
DICTIONARY
  5
ED0E
330
ED0D
100
AcDbDictionary
280
     1
281
     1
  3
TC_EXTENDED_DATA
360
ED0F
  0
DICTIONARY
  5
ED11
330
ED10
100
AcDbDictionary
280
     1
281
     1
  3
TC_EXTENDED_DATA
360
ED12
  0
DICTIONARY
  5
ED14
330
ED13
100
AcDbDictionary
280
     1
281
     1
  3
TC_EXTENDED_DATA
360
ED15
  0
DICTIONARY
  5
ED17
330
ED16
100
AcDbDictionary
280
     1
281
     1
  3
TC_EXTENDED_DATA
360
ED18
  0
DICTIONARY
  5
ED1A
330
ED19
100
AcDbDictionary
280
     1
281
     1
  3
TC_EXTENDED_DATA
360
ED1B
  0
DICTIONARY
  5
ED1D
330
ED1C
100
AcDbDictionary
280
     1
281
     1
  3
TC_EXTENDED_DATA
360
ED1E
  0
DICTIONARY
  5
ED21
330
ED20
100
AcDbDictionary
280
     1
281
     1
  3
TC_EXTENDED_DATA
360
ED22
  0
DICTIONARY
  5
ED24
330
ED23
100
AcDbDictionary
280
     1
281
     1
  3
TC_EXTENDED_DATA
360
ED25
  0
DICTIONARY
  5
ED27
330
ED26
100
AcDbDictionary
280
     1
281
     1
  3
TC_EXTENDED_DATA
360
ED28
  0
DICTIONARY
  5
ED2A
330
ED29
100
AcDbDictionary
280
     1
281
     1
  3
TC_EXTENDED_DATA
360
ED2B
  0
DICTIONARY
  5
ED2D
330
ED2C
100
AcDbDictionary
280
     1
281
     1
  3
TC_EXTENDED_DATA
360
ED2E
  0
DICTIONARY
  5
ED30
330
ED2F
100
AcDbDictionary
280
     1
281
     1
  3
TC_EXTENDED_DATA
360
ED31
  0
DICTIONARY
  5
ED33
330
ED32
100
AcDbDictionary
280
     1
281
     1
  3
TC_EXTENDED_DATA
360
ED34
  0
DICTIONARY
  5
ED36
330
ED35
100
AcDbDictionary
280
     1
281
     1
  3
TC_EXTENDED_DATA
360
ED37
  0
DICTIONARY
  5
ED39
330
ED38
100
AcDbDictionary
280
     1
281
     1
  3
TC_EXTENDED_DATA
360
ED3A
  0
DICTIONARY
  5
ED3C
330
ED3B
100
AcDbDictionary
280
     1
281
     1
  3
TC_EXTENDED_DATA
360
ED3D
  0
DICTIONARY
  5
ED41
330
ED40
100
AcDbDictionary
280
     1
281
     1
  3
TC_EXTENDED_DATA
360
ED42
  0
DICTIONARY
  5
ED44
330
ED43
100
AcDbDictionary
280
     1
281
     1
  3
TC_EXTENDED_DATA
360
ED45
  0
DICTIONARY
  5
ED47
330
ED46
100
AcDbDictionary
280
     1
281
     1
  3
TC_EXTENDED_DATA
360
ED48
  0
DICTIONARY
  5
ED4A
330
ED49
100
AcDbDictionary
280
     1
281
     1
  3
TC_EXTENDED_DATA
360
ED4B
  0
DICTIONARY
  5
ED4D
330
ED4C
100
AcDbDictionary
280
     1
281
     1
  3
TC_EXTENDED_DATA
360
ED4E
  0
DICTIONARY
  5
ED50
330
ED4F
100
AcDbDictionary
280
     1
281
     1
  3
TC_EXTENDED_DATA
360
ED51
  0
DICTIONARY
  5
ED53
330
ED52
100
AcDbDictionary
280
     1
281
     1
  3
TC_EXTENDED_DATA
360
ED54
  0
DICTIONARY
  5
ED56
330
ED55
100
AcDbDictionary
280
     1
281
     1
  3
TC_EXTENDED_DATA
360
ED57
  0
DICTIONARY
  5
ED59
330
ED58
100
AcDbDictionary
280
     1
281
     1
  3
TC_EXTENDED_DATA
360
ED5A
  0
DICTIONARY
  5
ED5C
330
ED5B
100
AcDbDictionary
280
     1
281
     1
  3
TC_EXTENDED_DATA
360
ED5D
  0
DICTIONARY
  5
ED5F
330
ED5E
100
AcDbDictionary
280
     1
281
     1
  3
TC_EXTENDED_DATA
360
ED60
  0
DICTIONARY
  5
ED64
330
ED63
100
AcDbDictionary
280
     1
281
     1
  3
TC_EXTENDED_DATA
360
ED65
  0
DICTIONARY
  5
ED69
330
ED68
100
AcDbDictionary
280
     1
281
     1
  3
TC_EXTENDED_DATA
360
ED6A
  0
DICTIONARY
  5
ED6C
330
ED6B
100
AcDbDictionary
280
     1
281
     1
  3
TC_EXTENDED_DATA
360
ED6D
  0
DICTIONARY
  5
ED6F
330
ED6E
100
AcDbDictionary
280
     1
281
     1
  3
TC_EXTENDED_DATA
360
ED70
  0
DICTIONARY
  5
ED72
330
ED71
100
AcDbDictionary
280
     1
281
     1
  3
TC_EXTENDED_DATA
360
ED73
  0
DICTIONARY
  5
ED75
330
ED74
100
AcDbDictionary
280
     1
281
     1
  3
TC_EXTENDED_DATA
360
ED76
  0
DICTIONARY
  5
ED78
330
ED77
100
AcDbDictionary
280
     1
281
     1
  3
TC_EXTENDED_DATA
360
ED79
  0
DICTIONARY
  5
ED7B
330
ED7A
100
AcDbDictionary
280
     1
281
     1
  3
TC_EXTENDED_DATA
360
ED7C
  0
DICTIONARY
  5
ED7E
330
ED7D
100
AcDbDictionary
280
     1
281
     1
  3
TC_EXTENDED_DATA
360
ED7F
  0
DICTIONARY
  5
6B
102
{ACAD_REACTORS
330
C
102
}
330
C
100
AcDbDictionary
281
     1
  0
DICTIONARY
  5
D
102
{ACAD_REACTORS
330
C
102
}
330
C
100
AcDbDictionary
281
     1
  3
*A1
350
297
  3
*A10
350
D168
  3
*A100
350
12AA0
  3
*A1000
350
2FD3
  3
*A1001
350
9685
  3
*A1002
350
8E12
  3
*A1003
350
1C01
  3
*A1004
350
364F
  3
*A1005
350
CD6
  3
*A1006
350
8E44
  3
*A1007
350
1815
  3
*A1008
350
FF56
  3
*A1009
350
9A95
  3
*A101
350
12AE4
  3
*A1010
350
F3E5
  3
*A1011
350
8E45
  3
*A1012
350
10B3
  3
*A1013
350
14B2
  3
*A1014
350
2E95
  3
*A1015
350
118B
  3
*A1016
350
82B9
  3
*A1017
350
817
  3
*A1018
350
FA0B
  3
*A1019
350
53F
  3
*A102
350
12AE5
  3
*A1020
350
110CE
  3
*A1021
350
9883
  3
*A1022
350
3B52
  3
*A1023
350
8E46
  3
*A1024
350
8E47
  3
*A1025
350
30BE
  3
*A1026
350
3144
  3
*A1027
350
32A4
  3
*A1028
350
20FB
  3
*A1029
350
CFD
  3
*A103
350
12B58
  3
*A1030
350
8ECC
  3
*A1031
350
112B5
  3
*A1032
350
20DF
  3
*A1033
350
8F5E
  3
*A1034
350
1179
  3
*A1035
350
2E23
  3
*A1036
350
8ECD
  3
*A1037
350
2771
  3
*A1038
350
D62
  3
*A1039
350
8ECE
  3
*A104
350
3C70
  3
*A1040
350
CC6
  3
*A1041
350
9A96
  3
*A1042
350
1BE7
  3
*A1043
350
2722
  3
*A1044
350
1A87
  3
*A1045
350
C8C1
  3
*A1046
350
E561
  3
*A1047
350
CC35
  3
*A1048
350
CC36
  3
*A1049
350
CC37
  3
*A105
350
3262
  3
*A1050
350
CC38
  3
*A1051
350
369C
  3
*A1052
350
CC39
  3
*A1053
350
9324
  3
*A1054
350
CC3A
  3
*A1055
350
208F
  3
*A1056
350
9A97
  3
*A1057
350
9C68
  3
*A1058
350
8FB6
  3
*A1059
350
3A2A
  3
*A106
350
12B87
  3
*A1060
350
8FB5
  3
*A1061
350
CC3B
  3
*A1062
350
3C58
  3
*A1063
350
2264
  3
*A1064
350
CC3C
  3
*A1065
350
CC3D
  3
*A1066
350
CC3E
  3
*A1067
350
CC3F
  3
*A1068
350
CC40
  3
*A1069
350
CC41
  3
*A107
350
12B8D
  3
*A1070
350
CC42
  3
*A1071
350
74F1
  3
*A1072
350
9C69
  3
*A1073
350
7740
  3
*A1074
350
9374
  3
*A1075
350
1027F
  3
*A1076
350
9A98
  3
*A1077
350
1C32
  3
*A1078
350
CC43
  3
*A1079
350
CC44
  3
*A1080
350
CC5E
  3
*A1081
350
39F1
  3
*A1082
350
CCD1
  3
*A1083
350
9D2C
  3
*A1084
350
3D23
  3
*A1085
350
CD25
  3
*A1086
350
10285
  3
*A1087
350
CDF9
  3
*A1088
350
CE56
  3
*A1089
350
3B6D
  3
*A109
350
12BAF
  3
*A1090
350
D162
  3
*A1091
350
110E4
  3
*A1092
350
D163
  3
*A1093
350
369
  3
*A1094
350
9379
  3
*A1097
350
12BD8
  3
*A1098
350
12BF0
  3
*A1099
350
12BF1
  3
*A11
350
3692
  3
*A110
350
3C88
  3
*A111
350
110E5
  3
*A112
350
36CA
  3
*A113
350
3CB5
  3
*A114
350
27FD
  3
*A115
350
E563
  3
*A116
350
10294
  3
*A117
350
1C4E
  3
*A118
350
3A14
  3
*A119
350
20F1
  3
*A12
350
D169
  3
*A120
350
F99
  3
*A121
350
2DDC
  3
*A122
350
3998
  3
*A123
350
1AC3
  3
*A124
350
112C8
  3
*A125
350
8D5F
  3
*A126
350
30B3
  3
*A127
350
3CD6
  3
*A128
350
E564
  3
*A129
350
2DFB
  3
*A13
350
D16A
  3
*A130
350
D948
  3
*A131
350
547
  3
*A132
350
10528
  3
*A133
350
FA0D
  3
*A134
350
542
  3
*A135
350
E116
  3
*A136
350
36CC
  3
*A137
350
20F0
  3
*A138
350
3D45
  3
*A139
350
9012
  3
*A14
350
E109
  3
*A140
350
112C9
  3
*A141
350
F45
  3
*A142
350
DA4
  3
*A143
350
D90
  3
*A144
350
CA0
  3
*A145
350
300A
  3
*A146
350
2597
  3
*A147
350
E122
  3
*A148
350
FA0E
  3
*A149
350
10685
  3
*A15
350
9A99
  3
*A150
350
357D
  3
*A151
350
FC0
  3
*A152
350
3707
  3
*A153
350
2DCD
  3
*A154
350
3196
  3
*A155
350
E565
  3
*A156
350
3CB6
  3
*A157
350
BF1
  3
*A158
350
9621
  3
*A159
350
9887
  3
*A16
350
112B8
  3
*A160
350
9013
  3
*A161
350
31F2
  3
*A162
350
9A9E
  3
*A163
350
3398
  3
*A164
350
3B88
  3
*A165
350
32F2
  3
*A166
350
31B7
  3
*A167
350
3267
  3
*A168
350
988A
  3
*A169
350
E566
  3
*A17
350
D16B
  3
*A170
350
DAF
  3
*A171
350
940C
  3
*A172
350
2132
  3
*A173
350
8D60
  3
*A174
350
D949
  3
*A175
350
36D2
  3
*A176
350
7741
  3
*A177
350
9622
  3
*A178
350
FA0F
  3
*A179
350
338D
  3
*A18
350
D16C
  3
*A180
350
92D5
  3
*A181
350
10B91
  3
*A182
350
9A9D
  3
*A183
350
E12E
  3
*A184
350
3A29
  3
*A185
350
940B
  3
*A186
350
2FFC
  3
*A187
350
BEA
  3
*A188
350
3271
  3
*A189
350
C32
  3
*A19
350
2D02
  3
*A190
350
36D7
  3
*A191
350
1A06
  3
*A192
350
FA10
  3
*A193
350
1C15
  3
*A194
350
9623
  3
*A195
350
E55A
  3
*A196
350
D94A
  3
*A197
350
4CC
  3
*A198
350
1650
  3
*A199
350
8D61
  3
*A2
350
D947
  3
*A20
350
3A37
  3
*A200
350
10BF0
  3
*A201
350
2D25
  3
*A202
350
3B3F
  3
*A203
350
92D6
  3
*A204
350
1B63
  3
*A205
350
83F5
  3
*A206
350
7742
  3
*A207
350
E08C
  3
*A208
350
D94B
  3
*A209
350
FA11
  3
*A21
350
D16D
  3
*A210
350
3A4B
  3
*A211
350
208C
  3
*A212
350
E567
  3
*A213
350
A0D1
  3
*A214
350
A0D2
  3
*A215
350
3A62
  3
*A216
350
110C9
  3
*A217
350
A0D3
  3
*A218
350
A0D4
  3
*A219
350
D94C
  3
*A22
350
9409
  3
*A220
350
21B4
  3
*A221
350
A0D5
  3
*A222
350
E135
  3
*A223
350
87A9
  3
*A224
350
3A6D
  3
*A225
350
E568
  3
*A226
350
8D62
  3
*A227
350
A0D6
  3
*A228
350
E14
  3
*A229
350
1246
  3
*A23
350
D16E
  3
*A230
350
D965
  3
*A231
350
A0D7
  3
*A232
350
3223
  3
*A233
350
9625
  3
*A234
350
E175
  3
*A235
350
3573
  3
*A236
350
A0D8
  3
*A237
350
1518
  3
*A238
350
21B9
  3
*A239
350
8FB2
  3
*A24
350
D17D
  3
*A240
350
FA12
  3
*A241
350
110CF
  3
*A242
350
A0D9
  3
*A243
350
A0DA
  3
*A244
350
92D7
  3
*A245
350
A0DB
  3
*A246
350
E541
  3
*A247
350
A0DC
  3
*A248
350
DAA
  3
*A249
350
988C
  3
*A25
350
10293
  3
*A250
350
27AE
  3
*A251
350
E574
  3
*A252
350
17A4
  3
*A253
350
370D
  3
*A254
350
A25D
  3
*A255
350
FBBD
  3
*A256
350
A25E
  3
*A257
350
184C
  3
*A258
350
74F0
  3
*A259
350
17DB
  3
*A26
350
110EA
  3
*A260
350
77D7
  3
*A261
350
A25F
  3
*A262
350
92D8
  3
*A263
350
9DFF
  3
*A264
350
A260
  3
*A265
350
E580
  3
*A266
350
F33
  3
*A267
350
A261
  3
*A268
350
3218
  3
*A269
350
FBBE
  3
*A27
350
D194
  3
*A270
350
E542
  3
*A271
350
110CA
  3
*A272
350
38BF
  3
*A273
350
A262
  3
*A274
350
D966
  3
*A275
350
2EAA
  3
*A276
350
3A92
  3
*A277
350
A263
  3
*A278
350
9889
  3
*A279
350
A264
  3
*A28
350
D4B
  3
*A280
350
A265
  3
*A281
350
71B0
  3
*A282
350
3971
  3
*A283
350
A266
  3
*A284
350
FC75
  3
*A285
350
3B35
  3
*A286
350
2EB5
  3
*A287
350
A267
  3
*A288
350
77D8
  3
*A289
350
1025
  3
*A29
350
D1AB
  3
*A290
350
F71
  3
*A291
350
E58D
  3
*A292
350
A268
  3
*A293
350
36FB
  3
*A294
350
E543
  3
*A295
350
EF7
  3
*A296
350
3D08
  3
*A297
350
FD7
  3
*A298
350
83F6
  3
*A299
350
725D
  3
*A3
350
39B2
  3
*A30
350
1013
  3
*A300
350
1C64
  3
*A301
350
8D63
  3
*A302
350
A274
  3
*A303
350
1C4F
  3
*A304
350
11105
  3
*A305
350
E58E
  3
*A306
350
E545
  3
*A307
350
12D9
  3
*A308
350
3CFC
  3
*A309
350
9626
  3
*A31
350
725C
  3
*A310
350
A279
  3
*A311
350
A433
  3
*A312
350
A434
  3
*A313
350
A435
  3
*A314
350
2080
  3
*A315
350
32DC
  3
*A316
350
2FF1
  3
*A317
350
30ED
  3
*A318
350
E562
  3
*A319
350
D97B
  3
*A32
350
D1C9
  3
*A320
350
11FE
  3
*A321
350
E546
  3
*A322
350
E58F
  3
*A323
350
326C
  3
*A324
350
A436
  3
*A325
350
3B93
  3
*A326
350
2728
  3
*A327
350
3242
  3
*A328
350
8D64
  3
*A329
350
A437
  3
*A33
350
2746
  3
*A330
350
DA13
  3
*A331
350
14AD
  3
*A332
350
A438
  3
*A333
350
9888
  3
*A334
350
FF52
  3
*A335
350
940D
  3
*A336
350
988D
  3
*A337
350
A439
  3
*A338
350
A5C8
  3
*A339
350
3961
  3
*A34
350
9C6B
  3
*A340
350
2742
  3
*A341
350
DA4F
  3
*A342
350
A5C9
  3
*A343
350
38D9
  3
*A344
350
A5CA
  3
*A345
350
E547
  3
*A346
350
9A9F
  3
*A347
350
3CD7
  3
*A348
350
1AE7
  3
*A349
350
70D1
  3
*A35
350
D1D8
  3
*A350
350
77D9
  3
*A351
350
110D2
  3
*A352
350
3C71
  3
*A353
350
A5CB
  3
*A354
350
3A7A
  3
*A355
350
A5CC
  3
*A356
350
2699
  3
*A357
350
11722
  3
*A358
350
A5CD
  3
*A359
350
A5CE
  3
*A36
350
2CFD
  3
*A360
350
110E6
  3
*A361
350
1C85
  3
*A362
350
A5CF
  3
*A363
350
3D39
  3
*A364
350
A5D0
  3
*A365
350
3582
  3
*A366
350
27B0
  3
*A367
350
11A4
  3
*A368
350
92D9
  3
*A369
350
1176F
  3
*A37
350
D266
  3
*A370
350
A5D1
  3
*A371
350
A5D2
  3
*A372
350
2EE0
  3
*A373
350
3624
  3
*A374
350
87AC
  3
*A375
350
2F4E
  3
*A376
350
89AF
  3
*A377
350
8D65
  3
*A378
350
1567
  3
*A379
350
A5D3
  3
*A38
350
9884
  3
*A380
350
A5D4
  3
*A381
350
3124
  3
*A382
350
38E6
  3
*A383
350
988E
  3
*A384
350
1D1C
  3
*A385
350
3CB4
  3
*A386
350
A5E0
  3
*A387
350
3B5D
  3
*A388
350
2F79
  3
*A389
350
146B
  3
*A39
350
D278
  3
*A390
350
E5A4
  3
*A391
350
9AA0
  3
*A392
350
A5E7
  3
*A393
350
11786
  3
*A394
350
AB7A
  3
*A395
350
AB7B
  3
*A396
350
DA50
  3
*A397
350
AB7C
  3
*A398
350
AB7D
  3
*A399
350
8D67
  3
*A4
350
10287
  3
*A40
350
1BB0
  3
*A400
350
988F
  3
*A401
350
10281
  3
*A402
350
1941
  3
*A403
350
26E4
  3
*A404
350
AB7E
  3
*A405
350
11944
  3
*A406
350
FF58
  3
*A407
350
DA51
  3
*A408
350
375
  3
*A409
350
2DD2
  3
*A41
350
D28B
  3
*A410
350
92DA
  3
*A411
350
1C28
  3
*A412
350
39D9
  3
*A413
350
AB7F
  3
*A414
350
2FD2
  3
*A415
350
2D20
  3
*A416
350
55F
  3
*A417
350
11945
  3
*A418
350
112B6
  3
*A419
350
2825
  3
*A42
350
19AE
  3
*A420
350
9627
  3
*A421
350
9AA1
  3
*A422
350
AB80
  3
*A423
350
AB81
  3
*A424
350
AB82
  3
*A425
350
82B6
  3
*A426
350
1CC1
  3
*A427
350
D9F
  3
*A428
350
1076
  3
*A429
350
D936
  3
*A43
350
126D
  3
*A430
350
DC6D
  3
*A431
350
11946
  3
*A432
350
AB83
  3
*A433
350
7909
  3
*A434
350
BF6
  3
*A435
350
12C7
  3
*A436
350
2748
  3
*A437
350
AB84
  3
*A438
350
9628
  3
*A439
350
AB85
  3
*A44
350
D51E
  3
*A440
350
AB8A
  3
*A441
350
71AF
  3
*A442
350
491
  3
*A443
350
42F
  3
*A444
350
11948
  3
*A445
350
E75C
  3
*A446
350
AB96
  3
*A447
350
1310
  3
*A448
350
75E
  3
*A449
350
AFE9
  3
*A45
350
D51F
  3
*A450
350
92EB
  3
*A451
350
40E
  3
*A452
350
3CD8
  3
*A453
350
8FB3
  3
*A454
350
B048
  3
*A455
350
17DA
  3
*A456
350
11949
  3
*A457
350
2745
  3
*A458
350
B3B
  3
*A459
350
110CB
  3
*A46
350
D520
  3
*A460
350
DE8
  3
*A461
350
1B81
  3
*A462
350
B087
  3
*A463
350
1883
  3
*A464
350
3706
  3
*A465
350
B09E
  3
*A466
350
1CA7
  3
*A467
350
D9A
  3
*A468
350
1197C
  3
*A469
350
9890
  3
*A47
350
1BBA
  3
*A470
350
4D5
  3
*A471
350
1210
  3
*A472
350
15C3
  3
*A473
350
87AA
  3
*A474
350
DC6E
  3
*A475
350
39C9
  3
*A476
350
12A3
  3
*A477
350
9629
  3
*A478
350
3BA0
  3
*A479
350
E1E
  3
*A48
350
3651
  3
*A480
350
11CB6
  3
*A481
350
434
  3
*A482
350
2107
  3
*A483
350
2EFD
  3
*A484
350
1115C
  3
*A485
350
DD0A
  3
*A486
350
3257
  3
*A487
350
3D5C
  3
*A488
350
459
  3
*A489
350
7968
  3
*A49
350
8F8D
  3
*A490
350
1BC1
  3
*A491
350
318B
  3
*A492
350
11CB7
  3
*A493
350
1BB5
  3
*A494
350
1090
  3
*A495
350
2B5
  3
*A496
350
DD0B
  3
*A497
350
2118
  3
*A498
350
3CFD
  3
*A499
350
311E
  3
*A5
350
D165
  3
*A50
350
D521
  3
*A500
350
3D22
  3
*A501
350
FF53
  3
*A502
350
D8D
  3
*A503
350
3578
  3
*A504
350
9C6E
  3
*A505
350
F5F
  3
*A506
350
3956
  3
*A507
350
1B77
  3
*A508
350
3277
  3
*A509
350
2F28
  3
*A51
350
D522
  3
*A510
350
2F7F
  3
*A511
350
3CFB
  3
*A512
350
55A
  3
*A513
350
C77
  3
*A514
350
962A
  3
*A515
350
21CD
  3
*A516
350
11CB8
  3
*A517
350
7BC3
  3
*A518
350
DD0C
  3
*A519
350
2ECA
  3
*A52
350
1A89
  3
*A520
350
2087
  3
*A521
350
7BC
  3
*A522
350
1D9E
  3
*A523
350
11C8
  3
*A524
350
27B2
  3
*A525
350
8ECF
  3
*A526
350
1B59
  3
*A527
350
21C3
  3
*A528
350
11CB9
  3
*A529
350
E06D
  3
*A53
350
DDE
  3
*A530
350
208B
  3
*A531
350
8D68
  3
*A532
350
962B
  3
*A533
350
9307
  3
*A534
350
110D3
  3
*A535
350
2729
  3
*A536
350
F9C
  3
*A537
350
1686
  3
*A538
350
3B3A
  3
*A539
350
2084
  3
*A54
350
D523
  3
*A540
350
D943
  3
*A541
350
E06E
  3
*A542
350
11E4D
  3
*A543
350
E5AA
  3
*A544
350
110E7
  3
*A545
350
2FE9
  3
*A546
350
2A1C
  3
*A547
350
38CA
  3
*A548
350
2E5C
  3
*A549
350
1291
  3
*A55
350
9885
  3
*A550
350
962C
  3
*A551
350
2D36
  3
*A552
350
9C6D
  3
*A553
350
9891
  3
*A554
350
11E4E
  3
*A555
350
2F10
  3
*A556
350
3157
  3
*A557
350
325D
  3
*A558
350
3C7D
  3
*A559
350
12FE
  3
*A56
350
E6D6
  3
*A560
350
39E4
  3
*A561
350
1884
  3
*A562
350
2744
  3
*A563
350
3659
  3
*A564
350
1A98
  3
*A565
350
10282
  3
*A566
350
E088
  3
*A567
350
11E4F
  3
*A568
350
12B5
  3
*A569
350
1222
  3
*A57
350
89BC
  3
*A570
350
3618
  3
*A571
350
3B68
  3
*A572
350
7BC4
  3
*A573
350
FF59
  3
*A574
350
8F8A
  3
*A575
350
2E84
  3
*A576
350
9308
  3
*A577
350
3BB6
  3
*A578
350
18C4
  3
*A579
350
11E50
  3
*A58
350
2826
  3
*A580
350
E548
  3
*A581
350
1C0B
  3
*A582
350
1C50
  3
*A583
350
8D69
  3
*A584
350
2147
  3
*A585
350
11DA
  3
*A586
350
2F1C
  3
*A587
350
725B
  3
*A588
350
26A5
  3
*A589
350
1B2C
  3
*A59
350
D524
  3
*A590
350
1001
  3
*A591
350
11E51
  3
*A592
350
D79
  3
*A593
350
125B
  3
*A594
350
E75D
  3
*A595
350
3A85
  3
*A596
350
10280
  3
*A597
350
9309
  3
*A598
350
21E4
  3
*A599
350
2089
  3
*A6
350
D166
  3
*A60
350
D525
  3
*A600
350
487
  3
*A601
350
2E14
  3
*A602
350
9892
  3
*A603
350
11E52
  3
*A604
350
1B08
  3
*A605
350
26E2
  3
*A606
350
8D6A
  3
*A607
350
E06F
  3
*A608
350
2083
  3
*A609
350
962D
  3
*A61
350
2827
  3
*A610
350
38E1
  3
*A611
350
26A4
  3
*A612
350
26E5
  3
*A613
350
271E
  3
*A614
350
8F5C
  3
*A615
350
11E53
  3
*A616
350
70E2
  3
*A617
350
1CC2
  3
*A618
350
4B1
  3
*A619
350
89B2
  3
*A62
350
D526
  3
*A620
350
D83
  3
*A621
350
88E
  3
*A622
350
1B6D
  3
*A623
350
471
  3
*A624
350
2727
  3
*A625
350
962E
  3
*A626
350
207F
  3
*A627
350
11E54
  3
*A628
350
20F6
  3
*A629
350
3697
  3
*A63
350
3648
  3
*A630
350
2088
  3
*A631
350
114F
  3
*A632
350
27FE
  3
*A633
350
207E
  3
*A634
350
2E6F
  3
*A635
350
3381
  3
*A636
350
2E74
  3
*A637
350
930A
  3
*A638
350
3BC1
  3
*A639
350
1027
  3
*A64
350
FA0A
  3
*A640
350
365E
  3
*A641
350
16C3
  3
*A642
350
2F33
  3
*A643
350
110CC
  3
*A644
350
1234
  3
*A645
350
27AF
  3
*A646
350
B6A1
  3
*A647
350
376
  3
*A648
350
397D
  3
*A649
350
B6A2
  3
*A65
350
D527
  3
*A650
350
B6A3
  3
*A651
350
D944
  3
*A652
350
E070
  3
*A653
350
11F4A
  3
*A654
350
9893
  3
*A655
350
B6A4
  3
*A656
350
B6A5
  3
*A657
350
32C8
  3
*A658
350
3B45
  3
*A659
350
7BC5
  3
*A66
350
9A9A
  3
*A660
350
B6A6
  3
*A661
350
89AC
  3
*A662
350
2FFF
  3
*A663
350
E071
  3
*A664
350
E04
  3
*A665
350
11F4B
  3
*A666
350
B6A7
  3
*A667
350
39B3
  3
*A668
350
B6A8
  3
*A669
350
FF54
  3
*A67
350
D528
  3
*A670
350
89AE
  3
*A671
350
39BD
  3
*A672
350
B6A9
  3
*A673
350
B6AA
  3
*A674
350
E081
  3
*A675
350
83F7
  3
*A676
350
B6B8
  3
*A677
350
1200F
  3
*A678
350
B6C6
  3
*A679
350
176A
  3
*A68
350
D5A0
  3
*A680
350
2FDE
  3
*A681
350
B6CC
  3
*A682
350
322E
  3
*A683
350
82B7
  3
*A684
350
1192
  3
*A685
350
7147
  3
*A686
350
9894
  3
*A687
350
B6D4
  3
*A688
350
CB4
  3
*A689
350
E089
  3
*A69
350
FA0C
  3
*A690
350
1202C
  3
*A691
350
1C44
  3
*A692
350
2E69
  3
*A693
350
B711
  3
*A694
350
E63E
  3
*A695
350
3080
  3
*A696
350
E082
  3
*A697
350
3BC2
  3
*A698
350
3725
  3
*A699
350
3088
  3
*A7
350
9C6A
  3
*A70
350
D5AF
  3
*A700
350
930B
  3
*A701
350
2183
  3
*A702
350
122C4
  3
*A703
350
26E6
  3
*A704
350
F31
  3
*A705
350
207D
  3
*A706
350
26D3
  3
*A707
350
E083
  3
*A708
350
2E09
  3
*A709
350
1092
  3
*A71
350
D5B1
  3
*A710
350
21AF
  3
*A711
350
8D6C
  3
*A712
350
15EF
  3
*A713
350
3BC9
  3
*A714
350
122C5
  3
*A715
350
38F6
  3
*A716
350
2086
  3
*A717
350
74EF
  3
*A718
350
E084
  3
*A719
350
7E9F
  3
*A72
350
2173
  3
*A720
350
2DA9
  3
*A721
350
328F
  3
*A722
350
215E
  3
*A723
350
3C4B
  3
*A724
350
C6B
  3
*A725
350
110E8
  3
*A726
350
122C6
  3
*A727
350
1127
  3
*A728
350
2720
  3
*A729
350
E085
  3
*A73
350
D5B2
  3
*A730
350
3935
  3
*A731
350
10283
  3
*A732
350
3746
  3
*A733
350
3962
  3
*A734
350
1C86
  3
*A735
350
8D6D
  3
*A736
350
39BE
  3
*A737
350
2FA9
  3
*A738
350
122C7
  3
*A739
350
D6F
  3
*A74
350
9C6C
  3
*A740
350
308E
  3
*A741
350
FF5A
  3
*A742
350
3BF2
  3
*A743
350
930E
  3
*A744
350
1687
  3
*A745
350
3C27
  3
*A746
350
7EA0
  3
*A747
350
3A57
  3
*A748
350
CB2
  3
*A749
350
1B1A
  3
*A75
350
1902
  3
*A750
350
122C8
  3
*A751
350
988B
  3
*A752
350
2F94
  3
*A753
350
521
  3
*A754
350
9A90
  3
*A755
350
127F
  3
*A756
350
11B6
  3
*A757
350
2DBD
  3
*A758
350
9641
  3
*A759
350
3CFA
  3
*A76
350
3C4C
  3
*A760
350
1BC6
  3
*A761
350
31DE
  3
*A762
350
D945
  3
*A763
350
E086
  3
*A764
350
122C9
  3
*A765
350
1139
  3
*A766
350
30B8
  3
*A767
350
B77A
  3
*A768
350
BA49
  3
*A769
350
BA4A
  3
*A77
350
356E
  3
*A770
350
1424
  3
*A771
350
27B1
  3
*A772
350
9A91
  3
*A773
350
7EA1
  3
*A774
350
E087
  3
*A775
350
BA4B
  3
*A776
350
44C
  3
*A777
350
9643
  3
*A778
350
BA4C
  3
*A779
350
BA4D
  3
*A78
350
D915
  3
*A780
350
D25
  3
*A781
350
397B
  3
*A782
350
BA4E
  3
*A783
350
BA4F
  3
*A784
350
2693
  3
*A785
350
9A9C
  3
*A786
350
D6C
  3
*A787
350
8D6E
  3
*A788
350
122CA
  3
*A789
350
9A92
  3
*A79
350
D924
  3
*A790
350
BA50
  3
*A791
350
BA51
  3
*A792
350
BAA6
  3
*A793
350
2824
  3
*A794
350
BAC5
  3
*A795
350
BAD3
  3
*A796
350
2772
  3
*A797
350
1DB9
  3
*A798
350
4C2
  3
*A799
350
BB4F
  3
*A8
350
D167
  3
*A80
350
36B7
  3
*A800
350
122CB
  3
*A801
350
2D31
  3
*A802
350
32E7
  3
*A803
350
3653
  3
*A804
350
16FA
  3
*A805
350
BB5F
  3
*A806
350
BC4E
  3
*A807
350
83F4
  3
*A808
350
BC4F
  3
*A809
350
8DF8
  3
*A81
350
D934
  3
*A810
350
FE9
  3
*A811
350
442
  3
*A812
350
E08A
  3
*A813
350
122CC
  3
*A814
350
BF33
  3
*A815
350
BF34
  3
*A816
350
1B47
  3
*A817
350
BF35
  3
*A818
350
125E0
  3
*A819
350
BF36
  3
*A82
350
FF57
  3
*A820
350
BF37
  3
*A821
350
9A93
  3
*A822
350
8F5D
  3
*A823
350
930F
  3
*A824
350
BF38
  3
*A825
350
12319
  3
*A826
350
208A
  3
*A827
350
12EB
  3
*A828
350
3D3A
  3
*A829
350
125E1
  3
*A83
350
9A9B
  3
*A830
350
110CD
  3
*A831
350
11EC
  3
*A832
350
967D
  3
*A833
350
BF39
  3
*A834
350
BF3A
  3
*A835
350
BF3B
  3
*A836
350
FF55
  3
*A837
350
1232E
  3
*A838
350
21C8
  3
*A839
350
111B8
  3
*A84
350
940A
  3
*A840
350
125E2
  3
*A841
350
8DF9
  3
*A842
350
BF3C
  3
*A843
350
BF3D
  3
*A844
350
BF3F
  3
*A845
350
C8A
  3
*A846
350
8FB4
  3
*A847
350
4A7
  3
*A848
350
BF94
  3
*A849
350
12382
  3
*A85
350
D935
  3
*A850
350
BFE9
  3
*A851
350
125E3
  3
*A852
350
967E
  3
*A853
350
E549
  3
*A854
350
8D5E
  3
*A855
350
2082
  3
*A856
350
BFF8
  3
*A857
350
2184
  3
*A858
350
C0C2
  3
*A859
350
2DD7
  3
*A86
350
2F3E
  3
*A860
350
C0C3
  3
*A861
350
123AC
  3
*A862
350
125E4
  3
*A863
350
3A09
  3
*A864
350
C0D3
  3
*A865
350
2F6D
  3
*A866
350
C15C
  3
*A867
350
8F5B
  3
*A868
350
2E2D
  3
*A869
350
C15D
  3
*A87
350
2ED5
  3
*A870
350
33AC
  3
*A871
350
C16B
  3
*A872
350
1942
  3
*A873
350
9886
  3
*A874
350
21BE
  3
*A875
350
9C6F
  3
*A876
350
C16E
  3
*A877
350
FAE
  3
*A878
350
1769
  3
*A879
350
C21F
  3
*A88
350
127B4
  3
*A880
350
C220
  3
*A881
350
8FB7
  3
*A882
350
C26B
  3
*A883
350
C348
  3
*A884
350
3917
  3
*A885
350
125E5
  3
*A886
350
32C7
  3
*A887
350
1733
  3
*A888
350
2102
  3
*A889
350
80CD
  3
*A89
350
12995
  3
*A890
350
4BA
  3
*A891
350
374
  3
*A892
350
1DB4
  3
*A893
350
C349
  3
*A894
350
310A
  3
*A895
350
C359
  3
*A896
350
125E6
  3
*A897
350
C367
  3
*A898
350
3F6
  3
*A899
350
2721
  3
*A9
350
3617
  3
*A900
350
C481
  3
*A901
350
C482
  3
*A902
350
C483
  3
*A903
350
C484
  3
*A904
350
C485
  3
*A905
350
110E3
  3
*A906
350
1903
  3
*A907
350
125E7
  3
*A908
350
110D1
  3
*A909
350
39FE
  3
*A91
350
112BC
  3
*A910
350
9310
  3
*A911
350
E55B
  3
*A912
350
C4F8
  3
*A913
350
7FF7
  3
*A914
350
328A
  3
*A915
350
7FF8
  3
*A916
350
7FF9
  3
*A917
350
3C59
  3
*A918
350
1262F
  3
*A919
350
8002
  3
*A92
350
12997
  3
*A920
350
8060
  3
*A921
350
10284
  3
*A922
350
8F8B
  3
*A923
350
112B7
  3
*A924
350
2E28
  3
*A925
350
3176
  3
*A926
350
89AD
  3
*A927
350
8061
  3
*A928
350
2CF8
  3
*A929
350
12690
  3
*A93
350
12998
  3
*A930
350
408
  3
*A931
350
C17
  3
*A932
350
536
  3
*A933
350
439
  3
*A934
350
2081
  3
*A935
350
E08B
  3
*A936
350
10286
  3
*A937
350
82B8
  3
*A938
350
110E9
  3
*A939
350
D5D
  3
*A940
350
12711
  3
*A941
350
8F8C
  3
*A942
350
208E
  3
*A943
350
8062
  3
*A944
350
967F
  3
*A945
350
8063
  3
*A946
350
21AA
  3
*A947
350
9311
  3
*A948
350
9C70
  3
*A949
350
31CA
  3
*A95
350
1299A
  3
*A950
350
16F9
  3
*A951
350
1272F
  3
*A952
350
80CA
  3
*A953
350
208D
  3
*A954
350
3C9C
  3
*A955
350
80CB
  3
*A956
350
1626
  3
*A957
350
80CC
  3
*A958
350
3D5D
  3
*A959
350
C7DF
  3
*A96
350
1299C
  3
*A960
350
9C7C
  3
*A961
350
71AE
  3
*A962
350
9620
  3
*A963
350
2741
  3
*A964
350
1C16
  3
*A965
350
144
  3
*A966
350
C7E0
  3
*A967
350
210C
  3
*A968
350
87AB
  3
*A969
350
C7E1
  3
*A97
350
129EE
  3
*A970
350
C7E2
  3
*A971
350
184D
  3
*A972
350
9C81
  3
*A973
350
112B9
  3
*A974
350
C7E3
  3
*A975
350
C7E4
  3
*A976
350
9C66
  3
*A977
350
C7E5
  3
*A978
350
C7E6
  3
*A979
350
9680
  3
*A98
350
129FA
  3
*A980
350
C7E7
  3
*A981
350
2085
  3
*A982
350
C7F5
  3
*A983
350
211F
  3
*A984
350
D946
  3
*A985
350
E08D
  3
*A986
350
9CB6
  3
*A987
350
544
  3
*A988
350
38EB
  3
*A989
350
9A94
  3
*A99
350
DF2
  3
*A990
350
E54A
  3
*A991
350
9C67
  3
*A992
350
C804
  3
*A993
350
8DFA
  3
*A994
350
C813
  3
*A995
350
C814
  3
*A996
350
961F
  3
*A997
350
8DFF
  3
*A998
350
9D2B
  3
*A999
350
E63F
  0
DICTIONARY
  5
1A
102
{ACAD_REACTORS
330
C
102
}
330
C
100
AcDbDictionary
281
     1
  3
Layout1
350
51
  3
Layout2
350
56
  3
Model
350
22
  0
DICTIONARY
  5
6A
102
{ACAD_REACTORS
330
C
102
}
330
C
100
AcDbDictionary
281
     1
  0
DICTIONARY
  5
17
102
{ACAD_REACTORS
330
C
102
}
330
C
100
AcDbDictionary
281
     1
  3
Standard
350
18
  0
DICTIONARY
  5
19
102
{ACAD_REACTORS
330
C
102
}
330
C
100
AcDbDictionary
281
     1
  0
ACDBDICTIONARYWDFLT
  5
E
102
{ACAD_REACTORS
330
C
102
}
330
C
100
AcDbDictionary
281
     1
  3
Normal
350
F
100
AcDbDictionaryWithDefault
340
F
  0
DICTIONARY
  5
11339
102
{ACAD_REACTORS
330
C
102
}
330
C
100
AcDbDictionary
281
     1
  3
Standard
350
1133A
  0
DICTIONARY
  5
5E
102
{ACAD_REACTORS
330
C
102
}
330
C
100
AcDbDictionary
281
     1
  3
CTABLESTYLE
350
113A3
  3
DIMASSOC
350
5F
  3
HIDETEXT
350
63
  3
PROJECTNAME
350
105
  0
DICTIONARY
  5
11E55
102
{ACAD_REACTORS
330
F3AF
102
}
330
F3AF
100
AcDbDictionary
281
     1
  0
DICTIONARY
  5
F3B0
102
{ACAD_REACTORS
330
F3AF
102
}
330
F3AF
100
AcDbDictionary
281
     1
  0
SORTENTSTABLE
  5
D8
102
{ACAD_REACTORS
330
D7
102
}
330
D7
100
AcDbSortentsTable
330
1F
331
3F3F
  5
5EE0
331
3F3E
  5
5EDF
331
4667
  5
5EE3
331
3F40
  5
5EE1
  0
SORTENTSTABLE
  5
75A9
102
{ACAD_REACTORS
330
75A8
102
}
330
75A8
100
AcDbSortentsTable
330
75A6
  0
SORTENTSTABLE
  5
10697
102
{ACAD_REACTORS
330
10696
102
}
330
10696
100
AcDbSortentsTable
330
1068D
  0
ACAD_PROXY_OBJECT
  5
EC1A
102
{ACAD_REACTORS
330
EC19
102
}
330
EC19
100
AcDbProxyObject
 90
      499
 91
      505
 95
   589845
 70
     1
100
TcOptionalData
 70
     2
 70
     2
 10
84.08770654251865
 20
138.7106166913589
 30
0.0
1001
ACAD
  0
ACAD_PROXY_OBJECT
  5
EC1D
102
{ACAD_REACTORS
330
EC1C
102
}
330
EC1C
100
AcDbProxyObject
 90
      499
 91
      505
 95
   589845
 70
     1
100
TcOptionalData
 70
     2
 70
   128
 90
        1
  1
#$AUX@_ToolInfo Properties
 70
     8
 90
       19
310
84CC8D0184CC8D0145525054434952434C4540
1001
ACAD
  0
ACAD_PROXY_OBJECT
  5
EC20
102
{ACAD_REACTORS
330
EC1F
102
}
330
EC1F
100
AcDbProxyObject
 90
      499
 91
      505
 95
   589845
 70
     1
100
TcOptionalData
 70
     2
 70
   128
 90
        1
  1
#$AUX@_ToolInfo Properties
 70
     8
 90
       19
310
84CC8D0184CC8D0145525054434952434C4540
1001
ACAD
  0
ACAD_PROXY_OBJECT
  5
EC23
102
{ACAD_REACTORS
330
EC22
102
}
330
EC22
100
AcDbProxyObject
 90
      499
 91
      505
 95
   589845
 70
     1
100
TcOptionalData
 70
     2
 70
   128
 90
        1
  1
#$AUX@_ToolInfo Properties
 70
     8
 90
       19
310
84CC8D0184CC8D01616C4461746100434C4540
1001
ACAD
  0
ACAD_PROXY_OBJECT
  5
EC26
102
{ACAD_REACTORS
330
EC25
102
}
330
EC25
100
AcDbProxyObject
 90
      499
 91
      505
 95
   589845
 70
     1
100
TcOptionalData
 70
     2
 70
   128
 90
        1
  1
#$AUX@_ToolInfo Properties
 70
     8
 90
       19
310
84CC8D0184CC8D0145525054434952434C4540
1001
ACAD
  0
ACAD_PROXY_OBJECT
  5
EC29
102
{ACAD_REACTORS
330
EC28
102
}
330
EC28
100
AcDbProxyObject
 90
      499
 91
      505
 95
   589845
 70
     1
100
TcOptionalData
 70
     2
 70
   128
 90
        1
  1
#$AUX@_ToolInfo Properties
 70
     8
 90
       19
310
84CC8D0184CC8D01616C4461746100434C4540
1001
ACAD
  0
ACAD_PROXY_OBJECT
  5
EC2C
102
{ACAD_REACTORS
330
EC2B
102
}
330
EC2B
100
AcDbProxyObject
 90
      499
 91
      505
 95
   589845
 70
     1
100
TcOptionalData
 70
     2
 70
   128
 90
        1
  1
#$AUX@_ToolInfo Properties
 70
     8
 90
       19
310
84CC8D0184CC8D01616C4461746100434C4540
1001
ACAD
  0
ACAD_PROXY_OBJECT
  5
EC2F
102
{ACAD_REACTORS
330
EC2E
102
}
330
EC2E
100
AcDbProxyObject
 90
      499
 91
      505
 95
   589845
 70
     1
100
TcOptionalData
 70
     2
 70
   128
 90
        1
  1
#$AUX@_ToolInfo Properties
 70
     8
 90
       19
310
84CC8D0184CC8D0145525054434952434C4540
1001
ACAD
  0
ACAD_PROXY_OBJECT
  5
EC32
102
{ACAD_REACTORS
330
EC31
102
}
330
EC31
100
AcDbProxyObject
 90
      499
 91
      505
 95
   589845
 70
     1
100
TcOptionalData
 70
     2
 70
   128
 90
        1
  1
#$AUX@_ToolInfo Properties
 70
     8
 90
       19
310
84CC8D0184CC8D0145525054434952434C4540
1001
ACAD
  0
ACAD_PROXY_OBJECT
  5
EC38
102
{ACAD_REACTORS
330
EC37
102
}
330
EC37
100
AcDbProxyObject
 90
      499
 91
      505
 95
   589845
 70
     1
100
TcOptionalData
 70
     2
 70
     2
 10
163.4993981927367
 20
170.6722091772172
 30
0.0
1001
ACAD
  0
ACAD_PROXY_OBJECT
  5
EC3B
102
{ACAD_REACTORS
330
EC3A
102
}
330
EC3A
100
AcDbProxyObject
 90
      499
 91
      505
 95
   589845
 70
     1
100
TcOptionalData
 70
     2
 70
   128
 90
        1
  1
#$AUX@_ToolInfo Properties
 70
     8
 90
       19
310
7CC88D017CC88D0145525054434952434C4540
1001
ACAD
  0
ACAD_PROXY_OBJECT
  5
EC3E
102
{ACAD_REACTORS
330
EC3D
102
}
330
EC3D
100
AcDbProxyObject
 90
      499
 91
      505
 95
   589845
 70
     1
100
TcOptionalData
 70
     2
 70
   128
 90
        1
  1
#$AUX@_ToolInfo Properties
 70
     8
 90
       19
310
DCB0F20480B18D0145525054434952434C4540
1001
ACAD
  0
ACAD_PROXY_OBJECT
  5
EC41
102
{ACAD_REACTORS
330
EC40
102
}
330
EC40
100
AcDbProxyObject
 90
      499
 91
      505
 95
   589845
 70
     1
100
TcOptionalData
 70
     2
 70
   128
 90
        1
  1
#$AUX@_ToolInfo Properties
 70
     8
 90
       19
310
E0C98D01E0C98D0145525054434952434C4540
1001
ACAD
  0
ACAD_PROXY_OBJECT
  5
EC44
102
{ACAD_REACTORS
330
EC43
102
}
330
EC43
100
AcDbProxyObject
 90
      499
 91
      505
 95
   589845
 70
     1
100
TcOptionalData
 70
     2
 70
   128
 90
        1
  1
#$AUX@_ToolInfo Properties
 70
     8
 90
       19
310
ECD3F804F8C98D0145525054434952434C4540
1001
ACAD
  0
ACAD_PROXY_OBJECT
  5
EC47
102
{ACAD_REACTORS
330
EC46
102
}
330
EC46
100
AcDbProxyObject
 90
      499
 91
      505
 95
   589845
 70
     1
100
TcOptionalData
 70
     2
 70
   128
 90
        1
  1
#$AUX@_ToolInfo Properties
 70
     8
 90
       19
310
DCD1F80410CA8D0145525054434952434C4540
1001
ACAD
  0
ACAD_PROXY_OBJECT
  5
EC4A
102
{ACAD_REACTORS
330
EC49
102
}
330
EC49
100
AcDbProxyObject
 90
      499
 91
      505
 95
   589845
 70
     1
100
TcOptionalData
 70
     2
 70
   128
 90
        1
  1
#$AUX@_ToolInfo Properties
 70
     8
 90
       19
310
58CA8D0158CA8D0145525054434952434C4540
1001
ACAD
  0
ACAD_PROXY_OBJECT
  5
EC4D
102
{ACAD_REACTORS
330
EC4C
102
}
330
EC4C
100
AcDbProxyObject
 90
      499
 91
      505
 95
   589845
 70
     1
100
TcOptionalData
 70
     2
 70
   128
 90
        1
  1
#$AUX@_ToolInfo Properties
 70
     8
 90
       19
310
434D445F43454E5445525054434952434C4540
1001
ACAD
  0
ACAD_PROXY_OBJECT
  5
EC50
102
{ACAD_REACTORS
330
EC4F
102
}
330
EC4F
100
AcDbProxyObject
 90
      499
 91
      505
 95
   589845
 70
     1
100
TcOptionalData
 70
     2
 70
   128
 90
        1
  1
#$AUX@_ToolInfo Properties
 70
     8
 90
       19
310
3CBEF80480CA8D0145525054434952434C4540
1001
ACAD
  0
ACAD_PROXY_OBJECT
  5
EC53
102
{ACAD_REACTORS
330
EC52
102
}
330
EC52
100
AcDbProxyObject
 90
      499
 91
      505
 95
   589845
 70
     1
100
TcOptionalData
 70
     2
 70
   128
 90
        1
  1
#$AUX@_ToolInfo Properties
 70
     8
 90
       19
310
3CBEF80480CA8D0145525054434952434C4540
1001
ACAD
  0
ACAD_PROXY_OBJECT
  5
EC56
102
{ACAD_REACTORS
330
EC55
102
}
330
EC55
100
AcDbProxyObject
 90
      499
 91
      505
 95
   589845
 70
     1
100
TcOptionalData
 70
     2
 70
   128
 90
        1
  1
#$AUX@_ToolInfo Properties
 70
     8
 90
       19
310
70CA8D0170CA8D0145525054434952434C4540
1001
ACAD
  0
ACAD_PROXY_OBJECT
  5
EC59
102
{ACAD_REACTORS
330
EC58
102
}
330
EC58
100
AcDbProxyObject
 90
      499
 91
      505
 95
   589845
 70
     1
100
TcOptionalData
 70
     2
 70
   128
 90
        1
  1
#$AUX@_ToolInfo Properties
 70
     8
 90
       19
310
0CBEF804B0C98D0145525054434952434C4540
1001
ACAD
  0
ACAD_PROXY_OBJECT
  5
EC5C
102
{ACAD_REACTORS
330
EC5B
102
}
330
EC5B
100
AcDbProxyObject
 90
      499
 91
      505
 95
   589845
 70
     1
100
TcOptionalData
 70
     2
 70
   128
 90
        1
  1
#$AUX@_ToolInfo Properties
 70
     8
 90
       19
310
80CA8D0180CA8D0145525054434952434C4540
1001
ACAD
  0
ACAD_PROXY_OBJECT
  5
EC5F
102
{ACAD_REACTORS
330
EC5E
102
}
330
EC5E
100
AcDbProxyObject
 90
      499
 91
      505
 95
   589845
 70
     1
100
TcOptionalData
 70
     2
 70
   128
 90
        1
  1
#$AUX@_ToolInfo Properties
 70
     8
 90
       19
310
80CA8D0180CA8D0145525054434952434C4540
1001
ACAD
  0
ACAD_PROXY_OBJECT
  5
EC62
102
{ACAD_REACTORS
330
EC61
102
}
330
EC61
100
AcDbProxyObject
 90
      499
 91
      505
 95
   589845
 70
     1
100
TcOptionalData
 70
     2
 70
   128
 90
        1
  1
#$AUX@_ToolInfo Properties
 70
     8
 90
       19
310
80CA8D0180CA8D0145525054434952434C4540
1001
ACAD
  0
ACAD_PROXY_OBJECT
  5
EC65
102
{ACAD_REACTORS
330
EC64
102
}
330
EC64
100
AcDbProxyObject
 90
      499
 91
      505
 95
   589845
 70
     1
100
TcOptionalData
 70
     2
 70
   128
 90
        1
  1
#$AUX@_ToolInfo Properties
 70
     8
 90
       19
310
80CA8D0180CA8D0145525054434952434C4540
1001
ACAD
  0
ACAD_PROXY_OBJECT
  5
EC68
102
{ACAD_REACTORS
330
EC67
102
}
330
EC67
100
AcDbProxyObject
 90
      499
 91
      505
 95
   589845
 70
     1
100
TcOptionalData
 70
     2
 70
   128
 90
        1
  1
#$AUX@_ToolInfo Properties
 70
     8
 90
       19
310
80CA8D0180CA8D0145525054434952434C4540
1001
ACAD
  0
ACAD_PROXY_OBJECT
  5
EC6B
102
{ACAD_REACTORS
330
EC6A
102
}
330
EC6A
100
AcDbProxyObject
 90
      499
 91
      505
 95
   589845
 70
     1
100
TcOptionalData
 70
     2
 70
   128
 90
        1
  1
#$AUX@_ToolInfo Properties
 70
     8
 90
       19
310
80CA8D0180CA8D0145525054434952434C4540
1001
ACAD
  0
ACAD_PROXY_OBJECT
  5
EC6E
102
{ACAD_REACTORS
330
EC6D
102
}
330
EC6D
100
AcDbProxyObject
 90
      499
 91
      505
 95
   589845
 70
     1
100
TcOptionalData
 70
     2
 70
   128
 90
        1
  1
#$AUX@_ToolInfo Properties
 70
     8
 90
       14
310
80C68D0180C68D01455441524340
1001
ACAD
  0
ACAD_PROXY_OBJECT
  5
EC71
102
{ACAD_REACTORS
330
EC70
102
}
330
EC70
100
AcDbProxyObject
 90
      499
 91
      505
 95
   589845
 70
     1
100
TcOptionalData
 70
     2
 70
   128
 90
        1
  1
#$AUX@_ToolInfo Properties
 70
     8
 90
       14
310
80CA8D0180CA8D01455441524340
1001
ACAD
  0
ACAD_PROXY_OBJECT
  5
EC74
102
{ACAD_REACTORS
330
EC73
102
}
330
EC73
100
AcDbProxyObject
 90
      499
 91
      505
 95
   589845
 70
     1
100
TcOptionalData
 70
     2
 70
   128
 90
        1
  1
#$AUX@_ToolInfo Properties
 70
     8
 90
       14
310
80CA8D0180CA8D01455441524340
1001
ACAD
  0
ACAD_PROXY_OBJECT
  5
EC77
102
{ACAD_REACTORS
330
EC76
102
}
330
EC76
100
AcDbProxyObject
 90
      499
 91
      505
 95
   589845
 70
     1
100
TcOptionalData
 70
     2
 70
   128
 90
        1
  1
#$AUX@_ToolInfo Properties
 70
     8
 90
       19
310
80CA8D0180CA8D0145525054434952434C4540
1001
ACAD
  0
ACAD_PROXY_OBJECT
  5
EC7A
102
{ACAD_REACTORS
330
EC79
102
}
330
EC79
100
AcDbProxyObject
 90
      499
 91
      505
 95
   589845
 70
     1
100
TcOptionalData
 70
     2
 70
   128
 90
        1
  1
#$AUX@_ToolInfo Properties
 70
     8
 90
       19
310
80CA8D0180CA8D0145525054434952434C4540
1001
ACAD
  0
ACAD_PROXY_OBJECT
  5
EC80
102
{ACAD_REACTORS
330
EC7F
102
}
330
EC7F
100
AcDbProxyObject
 90
      499
 91
      505
 95
   589845
 70
     1
100
TcOptionalData
 70
     2
 70
     2
 10
335.3553712619163
 20
143.3281311541666
 30
0.0
1001
ACAD
  0
ACAD_PROXY_OBJECT
  5
EC83
102
{ACAD_REACTORS
330
EC82
102
}
330
EC82
100
AcDbProxyObject
 90
      499
 91
      505
 95
   589845
 70
     1
100
TcOptionalData
 70
     2
 70
   128
 90
        1
  1
#$AUX@_ToolInfo Properties
 70
     8
 90
       19
310
E4CB8D01E4CB8D0145525054434952434C4540
1001
ACAD
  0
ACAD_PROXY_OBJECT
  5
EC86
102
{ACAD_REACTORS
330
EC85
102
}
330
EC85
100
AcDbProxyObject
 90
      499
 91
      505
 95
   589845
 70
     1
100
TcOptionalData
 70
     2
 70
   128
 90
        1
  1
#$AUX@_ToolInfo Properties
 70
     8
 90
       19
310
84CC8D0184CC8D0145525054434952434C4540
1001
ACAD
  0
ACAD_PROXY_OBJECT
  5
EC89
102
{ACAD_REACTORS
330
EC88
102
}
330
EC88
100
AcDbProxyObject
 90
      499
 91
      505
 95
   589845
 70
     1
100
TcOptionalData
 70
     2
 70
   128
 90
        1
  1
#$AUX@_ToolInfo Properties
 70
     8
 90
       19
310
84CC8D0184CC8D0145525054434952434C4540
1001
ACAD
  0
ACAD_PROXY_OBJECT
  5
EC8C
102
{ACAD_REACTORS
330
EC8B
102
}
330
EC8B
100
AcDbProxyObject
 90
      499
 91
      505
 95
   589845
 70
     1
100
TcOptionalData
 70
     2
 70
   128
 90
        1
  1
#$AUX@_ToolInfo Properties
 70
     8
 90
       19
310
84CC8D0184CC8D0145525054434952434C4540
1001
ACAD
  0
ACAD_PROXY_OBJECT
  5
EC92
102
{ACAD_REACTORS
330
EC91
102
}
330
EC91
100
AcDbProxyObject
 90
      499
 91
      505
 95
   589845
 70
     1
100
TcOptionalData
 70
     2
 70
     2
 10
251.1516589439555
 20
178.2714837553227
 30
0.0
1001
ACAD
  0
ACAD_PROXY_OBJECT
  5
EC95
102
{ACAD_REACTORS
330
EC94
102
}
330
EC94
100
AcDbProxyObject
 90
      499
 91
      505
 95
   589845
 70
     1
100
TcOptionalData
 70
     2
 70
   160
 90
        1
  1
#$AUX@_ToolInfo Properties
 70
     8
 90
       19
310
C8C98D01C8C98D0145525054434952434C4540
 40
0.0078740157186985
1001
ACAD
  0
ACAD_PROXY_OBJECT
  5
EC98
102
{ACAD_REACTORS
330
EC97
102
}
330
EC97
100
AcDbProxyObject
 90
      499
 91
      505
 95
   589845
 70
     1
100
TcOptionalData
 70
     2
 70
   160
 90
        1
  1
#$AUX@_ToolInfo Properties
 70
     8
 90
       19
310
80CA8D0180CA8D0145525054434952434C4540
 40
0.0078740157186985
1001
ACAD
  0
ACAD_PROXY_OBJECT
  5
EC9B
102
{ACAD_REACTORS
330
EC9A
102
}
330
EC9A
100
AcDbProxyObject
 90
      499
 91
      505
 95
   589845
 70
     1
100
TcOptionalData
 70
     2
 70
   160
 90
        1
  1
#$AUX@_ToolInfo Properties
 70
     8
 90
       19
310
80CA8D0180CA8D0145525054434952434C4540
 40
0.0078740157186985
1001
ACAD
  0
ACAD_PROXY_OBJECT
  5
EC9E
102
{ACAD_REACTORS
330
EC9D
102
}
330
EC9D
100
AcDbProxyObject
 90
      499
 91
      505
 95
   589845
 70
     1
100
TcOptionalData
 70
     2
 70
   160
 90
        1
  1
#$AUX@_ToolInfo Properties
 70
     8
 90
       19
310
80CA8D0180CA8D0145525054434952434C4540
 40
0.0078740157186985
1001
ACAD
  0
ACAD_PROXY_OBJECT
  5
ECA1
102
{ACAD_REACTORS
330
ECA0
102
}
330
ECA0
100
AcDbProxyObject
 90
      499
 91
      505
 95
   589845
 70
     1
100
TcOptionalData
 70
     2
 70
   160
 90
        1
  1
#$AUX@_ToolInfo Properties
 70
     8
 90
       19
310
78C68D0178C68D013100000031000000000000
 40
0.0078740157186985
1001
ACAD
  0
ACAD_PROXY_OBJECT
  5
ECA4
102
{ACAD_REACTORS
330
ECA3
102
}
330
ECA3
100
AcDbProxyObject
 90
      499
 91
      505
 95
   589845
 70
     1
100
TcOptionalData
 70
     2
 70
   160
 90
        1
  1
#$AUX@_ToolInfo Properties
 70
     8
 90
       19
310
80CA8D0180CA8D0145525054434952434C4540
 40
0.0078740157186985
1001
ACAD
  0
ACAD_PROXY_OBJECT
  5
ECA7
102
{ACAD_REACTORS
330
ECA6
102
}
330
ECA6
100
AcDbProxyObject
 90
      499
 91
      505
 95
   589845
 70
     1
100
TcOptionalData
 70
     2
 70
    32
 40
0.0078740157186985
1001
ACAD
  0
ACAD_PROXY_OBJECT
  5
ECAA
102
{ACAD_REACTORS
330
ECA9
102
}
330
ECA9
100
AcDbProxyObject
 90
      499
 91
      505
 95
   589845
 70
     1
100
TcOptionalData
 70
     2
 70
   160
 90
        1
  1
#$AUX@_ToolInfo Properties
 70
     8
 90
       19
310
80CA8D0180CA8D0145525054434952434C4540
 40
0.0078740157186985
1001
ACAD
  0
ACAD_PROXY_OBJECT
  5
ECAD
102
{ACAD_REACTORS
330
ECAC
102
}
330
ECAC
100
AcDbProxyObject
 90
      499
 91
      505
 95
   589845
 70
     1
100
TcOptionalData
 70
     2
 70
   160
 90
        1
  1
#$AUX@_ToolInfo Properties
 70
     8
 90
        9
310
80CA8D0180CA8D0140
 40
0.0078740157186985
1001
ACAD
  0
ACAD_PROXY_OBJECT
  5
ECB0
102
{ACAD_REACTORS
330
ECAF
102
}
330
ECAF
100
AcDbProxyObject
 90
      499
 91
      505
 95
   589845
 70
     1
100
TcOptionalData
 70
     2
 70
   160
 90
        1
  1
#$AUX@_ToolInfo Properties
 70
     8
 90
        9
310
58CA8D0158CA8D0140
 40
0.0078740157186985
1001
ACAD
  0
ACAD_PROXY_OBJECT
  5
ECB3
102
{ACAD_REACTORS
330
ECB2
102
}
330
ECB2
100
AcDbProxyObject
 90
      499
 91
      505
 95
   589845
 70
     1
100
TcOptionalData
 70
     2
 70
   160
 90
        1
  1
#$AUX@_ToolInfo Properties
 70
     8
 90
       19
310
80CA8D0180CA8D0145525054434952434C4540
 40
0.0078740157186985
1001
ACAD
  0
ACAD_PROXY_OBJECT
  5
ECB6
102
{ACAD_REACTORS
330
ECB5
102
}
330
ECB5
100
AcDbProxyObject
 90
      499
 91
      505
 95
   589845
 70
     1
100
TcOptionalData
 70
     2
 70
    32
 40
0.0078740157186985
1001
ACAD
  0
ACAD_PROXY_OBJECT
  5
ECB9
102
{ACAD_REACTORS
330
ECB8
102
}
330
ECB8
100
AcDbProxyObject
 90
      499
 91
      505
 95
   589845
 70
     1
100
TcOptionalData
 70
     2
 70
   160
 90
        1
  1
#$AUX@_ToolInfo Properties
 70
     8
 90
        9
310
80CA8D0180CA8D0140
 40
0.0078740157186985
1001
ACAD
  0
ACAD_PROXY_OBJECT
  5
ECBC
102
{ACAD_REACTORS
330
ECBB
102
}
330
ECBB
100
AcDbProxyObject
 90
      499
 91
      505
 95
   589845
 70
     1
100
TcOptionalData
 70
     2
 70
   160
 90
        1
  1
#$AUX@_ToolInfo Properties
 70
     8
 90
        9
310
80CA8D0180CA8D0140
 40
0.0078740157186985
1001
ACAD
  0
ACAD_PROXY_OBJECT
  5
ECBF
102
{ACAD_REACTORS
330
ECBE
102
}
330
ECBE
100
AcDbProxyObject
 90
      499
 91
      505
 95
   589845
 70
     1
100
TcOptionalData
 70
     2
 70
   160
 90
        1
  1
#$AUX@_ToolInfo Properties
 70
     8
 90
       19
310
80CA8D0180CA8D0145525054434952434C4540
 40
0.0078740157186985
1001
ACAD
  0
ACAD_PROXY_OBJECT
  5
ECC2
102
{ACAD_REACTORS
330
ECC1
102
}
330
ECC1
100
AcDbProxyObject
 90
      499
 91
      505
 95
   589845
 70
     1
100
TcOptionalData
 70
     2
 70
    32
 40
0.0078740157186985
1001
ACAD
  0
ACAD_PROXY_OBJECT
  5
ECC5
102
{ACAD_REACTORS
330
ECC4
102
}
330
ECC4
100
AcDbProxyObject
 90
      499
 91
      505
 95
   589845
 70
     1
100
TcOptionalData
 70
     2
 70
   160
 90
        1
  1
#$AUX@_ToolInfo Properties
 70
     8
 90
        9
310
E0C98D01E0C98D0131
 40
0.0078740157186985
1001
ACAD
  0
ACAD_PROXY_OBJECT
  5
ECC8
102
{ACAD_REACTORS
330
ECC7
102
}
330
ECC7
100
AcDbProxyObject
 90
      499
 91
      505
 95
   589845
 70
     1
100
TcOptionalData
 70
     2
 70
   160
 90
        1
  1
#$AUX@_ToolInfo Properties
 70
     8
 90
        9
310
80CA8D0180CA8D0140
 40
0.0078740157186985
1001
ACAD
  0
ACAD_PROXY_OBJECT
  5
ECCB
102
{ACAD_REACTORS
330
ECCA
102
}
330
ECCA
100
AcDbProxyObject
 90
      499
 91
      505
 95
   589845
 70
     1
100
TcOptionalData
 70
     2
 70
    32
 40
0.0078740157186985
1001
ACAD
  0
ACAD_PROXY_OBJECT
  5
ECCE
102
{ACAD_REACTORS
330
ECCD
102
}
330
ECCD
100
AcDbProxyObject
 90
      499
 91
      505
 95
   589845
 70
     1
100
TcOptionalData
 70
     2
 70
   160
 90
        1
  1
#$AUX@_ToolInfo Properties
 70
     8
 90
       19
310
80CA8D0180CA8D0145525054434952434C4540
 40
0.0078740157186985
1001
ACAD
  0
ACAD_PROXY_OBJECT
  5
ECD1
102
{ACAD_REACTORS
330
ECD0
102
}
330
ECD0
100
AcDbProxyObject
 90
      499
 91
      505
 95
   589845
 70
     1
100
TcOptionalData
 70
     2
 70
   160
 90
        1
  1
#$AUX@_ToolInfo Properties
 70
     8
 90
        9
310
80CA8D0180CA8D0140
 40
0.0078740157186985
1001
ACAD
  0
ACAD_PROXY_OBJECT
  5
ECD4
102
{ACAD_REACTORS
330
ECD3
102
}
330
ECD3
100
AcDbProxyObject
 90
      499
 91
      505
 95
   589845
 70
     1
100
TcOptionalData
 70
     2
 70
   160
 90
        1
  1
#$AUX@_ToolInfo Properties
 70
     8
 90
        9
310
84CC8D0184CC8D0140
 40
0.0078740157186985
1001
ACAD
  0
ACAD_PROXY_OBJECT
  5
ECD7
102
{ACAD_REACTORS
330
ECD6
102
}
330
ECD6
100
AcDbProxyObject
 90
      499
 91
      505
 95
   589845
 70
     1
100
TcOptionalData
 70
     2
 70
   160
 90
        1
  1
#$AUX@_ToolInfo Properties
 70
     8
 90
       19
310
78C68D0178C68D0145525054434952434C4540
 40
0.0078740157186985
1001
ACAD
  0
ACAD_PROXY_OBJECT
  5
ECDD
102
{ACAD_REACTORS
330
ECDC
102
}
330
ECDC
100
AcDbProxyObject
 90
      499
 91
      505
 95
   589845
 70
     1
100
TcOptionalData
 70
     2
 70
     2
 10
260.4847966956618
 20
216.2024254611583
 30
0.0
1001
ACAD
  0
ACAD_PROXY_OBJECT
  5
ECE2
102
{ACAD_REACTORS
330
ECE1
102
}
330
ECE1
100
AcDbProxyObject
 90
      499
 91
      505
 95
   589845
 70
     1
100
TcOptionalData
 70
     2
 70
    32
 40
3.0
1001
ACAD
  0
ACAD_PROXY_OBJECT
  5
ECE5
102
{ACAD_REACTORS
330
ECE4
102
}
330
ECE4
100
AcDbProxyObject
 90
      499
 91
      505
 95
   589845
 70
     1
100
TcOptionalData
 70
     2
 70
    32
 40
3.0
1001
ACAD
  0
ACAD_PROXY_OBJECT
  5
ECE8
102
{ACAD_REACTORS
330
ECE7
102
}
330
ECE7
100
AcDbProxyObject
 90
      499
 91
      505
 95
   589845
 70
     1
100
TcOptionalData
 70
     2
 70
    32
 40
3.0
1001
ACAD
  0
ACAD_PROXY_OBJECT
  5
ECEB
102
{ACAD_REACTORS
330
ECEA
102
}
330
ECEA
100
AcDbProxyObject
 90
      499
 91
      505
 95
   589845
 70
     1
100
TcOptionalData
 70
     2
 70
    32
 40
3.0
1001
ACAD
  0
ACAD_PROXY_OBJECT
  5
ECEE
102
{ACAD_REACTORS
330
ECED
102
}
330
ECED
100
AcDbProxyObject
 90
      499
 91
      505
 95
   589845
 70
     1
100
TcOptionalData
 70
     2
 70
    32
 40
3.0
1001
ACAD
  0
ACAD_PROXY_OBJECT
  5
ECF1
102
{ACAD_REACTORS
330
ECF0
102
}
330
ECF0
100
AcDbProxyObject
 90
      499
 91
      505
 95
   589845
 70
     1
100
TcOptionalData
 70
     2
 70
    32
 40
3.0
1001
ACAD
  0
ACAD_PROXY_OBJECT
  5
ECF4
102
{ACAD_REACTORS
330
ECF3
102
}
330
ECF3
100
AcDbProxyObject
 90
      499
 91
      505
 95
   589845
 70
     1
100
TcOptionalData
 70
     2
 70
    32
 40
3.0
1001
ACAD
  0
ACAD_PROXY_OBJECT
  5
ECF7
102
{ACAD_REACTORS
330
ECF6
102
}
330
ECF6
100
AcDbProxyObject
 90
      499
 91
      505
 95
   589845
 70
     1
100
TcOptionalData
 70
     2
 70
    32
 40
3.0
1001
ACAD
  0
ACAD_PROXY_OBJECT
  5
ECFC
102
{ACAD_REACTORS
330
ECFB
102
}
330
ECFB
100
AcDbProxyObject
 90
      499
 91
      505
 95
   589845
 70
     1
100
TcOptionalData
 70
     2
 70
     2
 10
264.4647061633472
 20
175.7755646187586
 30
0.0
1001
ACAD
  0
ACAD_PROXY_OBJECT
  5
ECFF
102
{ACAD_REACTORS
330
ECFE
102
}
330
ECFE
100
AcDbProxyObject
 90
      499
 91
      505
 95
   589845
 70
     1
100
TcOptionalData
 70
     2
 70
    32
 40
3.0
1001
ACAD
  0
ACAD_PROXY_OBJECT
  5
ED02
102
{ACAD_REACTORS
330
ED01
102
}
330
ED01
100
AcDbProxyObject
 90
      499
 91
      505
 95
   589845
 70
     1
100
TcOptionalData
 70
     2
 70
    32
 40
3.0
1001
ACAD
  0
ACAD_PROXY_OBJECT
  5
ED05
102
{ACAD_REACTORS
330
ED04
102
}
330
ED04
100
AcDbProxyObject
 90
      499
 91
      505
 95
   589845
 70
     1
100
TcOptionalData
 70
     2
 70
    32
 40
3.0
1001
ACAD
  0
ACAD_PROXY_OBJECT
  5
ED09
102
{ACAD_REACTORS
330
ED08
102
}
330
ED08
100
AcDbProxyObject
 90
      499
 91
      505
 95
   589845
 70
     1
100
TcOptionalData
 70
     2
 70
    32
 40
3.0
1001
ACAD
  0
ACAD_PROXY_OBJECT
  5
ED0C
102
{ACAD_REACTORS
330
ED0B
102
}
330
ED0B
100
AcDbProxyObject
 90
      499
 91
      505
 95
   589845
 70
     1
100
TcOptionalData
 70
     2
 70
    32
 40
3.0
1001
ACAD
  0
ACAD_PROXY_OBJECT
  5
ED0F
102
{ACAD_REACTORS
330
ED0E
102
}
330
ED0E
100
AcDbProxyObject
 90
      499
 91
      505
 95
   589845
 70
     1
100
TcOptionalData
 70
     2
 70
    32
 40
3.0
1001
ACAD
  0
ACAD_PROXY_OBJECT
  5
ED12
102
{ACAD_REACTORS
330
ED11
102
}
330
ED11
100
AcDbProxyObject
 90
      499
 91
      505
 95
   589845
 70
     1
100
TcOptionalData
 70
     2
 70
    32
 40
3.0
1001
ACAD
  0
ACAD_PROXY_OBJECT
  5
ED15
102
{ACAD_REACTORS
330
ED14
102
}
330
ED14
100
AcDbProxyObject
 90
      499
 91
      505
 95
   589845
 70
     1
100
TcOptionalData
 70
     2
 70
    32
 40
3.0
1001
ACAD
  0
ACAD_PROXY_OBJECT
  5
ED18
102
{ACAD_REACTORS
330
ED17
102
}
330
ED17
100
AcDbProxyObject
 90
      499
 91
      505
 95
   589845
 70
     1
100
TcOptionalData
 70
     2
 70
    32
 40
3.0
1001
ACAD
  0
ACAD_PROXY_OBJECT
  5
ED1B
102
{ACAD_REACTORS
330
ED1A
102
}
330
ED1A
100
AcDbProxyObject
 90
      499
 91
      505
 95
   589845
 70
     1
100
TcOptionalData
 70
     2
 70
    32
 40
3.0
1001
ACAD
  0
ACAD_PROXY_OBJECT
  5
ED1E
102
{ACAD_REACTORS
330
ED1D
102
}
330
ED1D
100
AcDbProxyObject
 90
      499
 91
      505
 95
   589845
 70
     1
100
TcOptionalData
 70
     2
 70
    32
 40
3.0
1001
ACAD
  0
ACAD_PROXY_OBJECT
  5
ED22
102
{ACAD_REACTORS
330
ED21
102
}
330
ED21
100
AcDbProxyObject
 90
      499
 91
      505
 95
   589845
 70
     1
100
TcOptionalData
 70
     2
 70
    32
 40
3.0
1001
ACAD
  0
ACAD_PROXY_OBJECT
  5
ED25
102
{ACAD_REACTORS
330
ED24
102
}
330
ED24
100
AcDbProxyObject
 90
      499
 91
      505
 95
   589845
 70
     1
100
TcOptionalData
 70
     2
 70
    32
 40
3.0
1001
ACAD
  0
ACAD_PROXY_OBJECT
  5
ED28
102
{ACAD_REACTORS
330
ED27
102
}
330
ED27
100
AcDbProxyObject
 90
      499
 91
      505
 95
   589845
 70
     1
100
TcOptionalData
 70
     2
 70
    32
 40
3.0
1001
ACAD
  0
ACAD_PROXY_OBJECT
  5
ED2B
102
{ACAD_REACTORS
330
ED2A
102
}
330
ED2A
100
AcDbProxyObject
 90
      499
 91
      505
 95
   589845
 70
     1
100
TcOptionalData
 70
     2
 70
    32
 40
3.0
1001
ACAD
  0
ACAD_PROXY_OBJECT
  5
ED2E
102
{ACAD_REACTORS
330
ED2D
102
}
330
ED2D
100
AcDbProxyObject
 90
      499
 91
      505
 95
   589845
 70
     1
100
TcOptionalData
 70
     2
 70
    32
 40
3.0
1001
ACAD
  0
ACAD_PROXY_OBJECT
  5
ED31
102
{ACAD_REACTORS
330
ED30
102
}
330
ED30
100
AcDbProxyObject
 90
      499
 91
      505
 95
   589845
 70
     1
100
TcOptionalData
 70
     2
 70
    32
 40
3.0
1001
ACAD
  0
ACAD_PROXY_OBJECT
  5
ED34
102
{ACAD_REACTORS
330
ED33
102
}
330
ED33
100
AcDbProxyObject
 90
      499
 91
      505
 95
   589845
 70
     1
100
TcOptionalData
 70
     2
 70
    32
 40
3.0
1001
ACAD
  0
ACAD_PROXY_OBJECT
  5
ED37
102
{ACAD_REACTORS
330
ED36
102
}
330
ED36
100
AcDbProxyObject
 90
      499
 91
      505
 95
   589845
 70
     1
100
TcOptionalData
 70
     2
 70
    32
 40
3.0
1001
ACAD
  0
ACAD_PROXY_OBJECT
  5
ED3A
102
{ACAD_REACTORS
330
ED39
102
}
330
ED39
100
AcDbProxyObject
 90
      499
 91
      505
 95
   589845
 70
     1
100
TcOptionalData
 70
     2
 70
    32
 40
3.0
1001
ACAD
  0
ACAD_PROXY_OBJECT
  5
ED3D
102
{ACAD_REACTORS
330
ED3C
102
}
330
ED3C
100
AcDbProxyObject
 90
      499
 91
      505
 95
   589845
 70
     1
100
TcOptionalData
 70
     2
 70
    32
 40
3.0
1001
ACAD
  0
ACAD_PROXY_OBJECT
  5
ED42
102
{ACAD_REACTORS
330
ED41
102
}
330
ED41
100
AcDbProxyObject
 90
      499
 91
      505
 95
   589845
 70
     1
100
TcOptionalData
 70
     2
 70
     2
 10
243.3230304593996
 20
166.2768074547451
 30
0.0
1001
ACAD
  0
ACAD_PROXY_OBJECT
  5
ED45
102
{ACAD_REACTORS
330
ED44
102
}
330
ED44
100
AcDbProxyObject
 90
      499
 91
      505
 95
   589845
 70
     1
100
TcOptionalData
 70
     2
 70
   128
 90
        1
  1
#$AUX@_ToolInfo Properties
 70
     8
 90
       19
310
98CA8D0198CA8D0145525054434952434C4540
1001
ACAD
  0
ACAD_PROXY_OBJECT
  5
ED48
102
{ACAD_REACTORS
330
ED47
102
}
330
ED47
100
AcDbProxyObject
 90
      499
 91
      505
 95
   589845
 70
     1
100
TcOptionalData
 70
     2
 70
   128
 90
        1
  1
#$AUX@_ToolInfo Properties
 70
     8
 90
       19
310
80CA8D0180CA8D0145525054434952434C4540
1001
ACAD
  0
ACAD_PROXY_OBJECT
  5
ED4B
102
{ACAD_REACTORS
330
ED4A
102
}
330
ED4A
100
AcDbProxyObject
 90
      499
 91
      505
 95
   589845
 70
     1
100
TcOptionalData
 70
     2
 70
   128
 90
        1
  1
#$AUX@_ToolInfo Properties
 70
     8
 90
       19
310
80CA8D0180CA8D0145525054434952434C4540
1001
ACAD
  0
ACAD_PROXY_OBJECT
  5
ED4E
102
{ACAD_REACTORS
330
ED4D
102
}
330
ED4D
100
AcDbProxyObject
 90
      499
 91
      505
 95
   589845
 70
     1
100
TcOptionalData
 70
     2
 70
   128
 90
        1
  1
#$AUX@_ToolInfo Properties
 70
     8
 90
       14
310
80CA8D0180CA8D01455441524340
1001
ACAD
  0
ACAD_PROXY_OBJECT
  5
ED51
102
{ACAD_REACTORS
330
ED50
102
}
330
ED50
100
AcDbProxyObject
 90
      499
 91
      505
 95
   589845
 70
     1
100
TcOptionalData
 70
     2
 70
   128
 90
        1
  1
#$AUX@_ToolInfo Properties
 70
     8
 90
       19
310
C0C98D01C0C98D0145525054434952434C4540
1001
ACAD
  0
ACAD_PROXY_OBJECT
  5
ED54
102
{ACAD_REACTORS
330
ED53
102
}
330
ED53
100
AcDbProxyObject
 90
      499
 91
      505
 95
   589845
 70
     1
100
TcOptionalData
 70
     2
 70
   128
 90
        1
  1
#$AUX@_ToolInfo Properties
 70
     8
 90
       19
310
80CA8D0180CA8D0145525054434952434C4540
1001
ACAD
  0
ACAD_PROXY_OBJECT
  5
ED57
102
{ACAD_REACTORS
330
ED56
102
}
330
ED56
100
AcDbProxyObject
 90
      499
 91
      505
 95
   589845
 70
     1
100
TcOptionalData
 70
     2
 70
   128
 90
        1
  1
#$AUX@_ToolInfo Properties
 70
     8
 90
       19
310
80CA8D0180CA8D0145525054434952434C4540
1001
ACAD
  0
ACAD_PROXY_OBJECT
  5
ED5A
102
{ACAD_REACTORS
330
ED59
102
}
330
ED59
100
AcDbProxyObject
 90
      499
 91
      505
 95
   589845
 70
     1
100
TcOptionalData
 70
     2
 70
   128
 90
        1
  1
#$AUX@_ToolInfo Properties
 70
     8
 90
       19
310
80CA8D0180CA8D0145525054434952434C4540
1001
ACAD
  0
ACAD_PROXY_OBJECT
  5
ED5D
102
{ACAD_REACTORS
330
ED5C
102
}
330
ED5C
100
AcDbProxyObject
 90
      499
 91
      505
 95
   589845
 70
     1
100
TcOptionalData
 70
     2
 70
   128
 90
        1
  1
#$AUX@_ToolInfo Properties
 70
     8
 90
       19
310
80CA8D0180CA8D0145525054434952434C4540
1001
ACAD
  0
ACAD_PROXY_OBJECT
  5
ED60
102
{ACAD_REACTORS
330
ED5F
102
}
330
ED5F
100
AcDbProxyObject
 90
      499
 91
      505
 95
   589845
 70
     1
100
TcOptionalData
 70
     2
 70
   128
 90
        1
  1
#$AUX@_ToolInfo Properties
 70
     8
 90
       19
310
80CA8D0180CA8D0145525054434952434C4540
1001
ACAD
  0
ACAD_PROXY_OBJECT
  5
ED65
102
{ACAD_REACTORS
330
ED64
102
}
330
ED64
100
AcDbProxyObject
 90
      499
 91
      505
 95
   589845
 70
     1
100
TcOptionalData
 70
     2
 70
     2
 10
260.4847966956618
 20
197.7973975408167
 30
0.0
1001
ACAD
  0
ACAD_PROXY_OBJECT
  5
ED6A
102
{ACAD_REACTORS
330
ED69
102
}
330
ED69
100
AcDbProxyObject
 90
      499
 91
      505
 95
   589845
 70
     1
100
TcOptionalData
 70
     2
 70
    32
 40
3.0
1001
ACAD
  0
ACAD_PROXY_OBJECT
  5
ED6D
102
{ACAD_REACTORS
330
ED6C
102
}
330
ED6C
100
AcDbProxyObject
 90
      499
 91
      505
 95
   589845
 70
     1
100
TcOptionalData
 70
     2
 70
    32
 40
3.0
1001
ACAD
  0
ACAD_PROXY_OBJECT
  5
ED70
102
{ACAD_REACTORS
330
ED6F
102
}
330
ED6F
100
AcDbProxyObject
 90
      499
 91
      505
 95
   589845
 70
     1
100
TcOptionalData
 70
     2
 70
    32
 40
3.0
1001
ACAD
  0
ACAD_PROXY_OBJECT
  5
ED73
102
{ACAD_REACTORS
330
ED72
102
}
330
ED72
100
AcDbProxyObject
 90
      499
 91
      505
 95
   589845
 70
     1
100
TcOptionalData
 70
     2
 70
    32
 40
3.0
1001
ACAD
  0
ACAD_PROXY_OBJECT
  5
ED76
102
{ACAD_REACTORS
330
ED75
102
}
330
ED75
100
AcDbProxyObject
 90
      499
 91
      505
 95
   589845
 70
     1
100
TcOptionalData
 70
     2
 70
    32
 40
3.0
1001
ACAD
  0
ACAD_PROXY_OBJECT
  5
ED79
102
{ACAD_REACTORS
330
ED78
102
}
330
ED78
100
AcDbProxyObject
 90
      499
 91
      505
 95
   589845
 70
     1
100
TcOptionalData
 70
     2
 70
    32
 40
3.0
1001
ACAD
  0
ACAD_PROXY_OBJECT
  5
ED7C
102
{ACAD_REACTORS
330
ED7B
102
}
330
ED7B
100
AcDbProxyObject
 90
      499
 91
      505
 95
   589845
 70
     1
100
TcOptionalData
 70
     2
 70
    32
 40
3.0
1001
ACAD
  0
ACAD_PROXY_OBJECT
  5
ED7F
102
{ACAD_REACTORS
330
ED7E
102
}
330
ED7E
100
AcDbProxyObject
 90
      499
 91
      505
 95
   589845
 70
     1
100
TcOptionalData
 70
     2
 70
    32
 40
3.0
1001
ACAD
  0
GROUP
  5
297
102
{ACAD_REACTORS
330
D
102
}
330
D
100
AcDbGroup
300

 70
     1
 71
     1
  0
GROUP
  5
D168
102
{ACAD_REACTORS
330
D
102
}
330
D
100
AcDbGroup
300

 70
     1
 71
     1
  0
GROUP
  5
12AA0
102
{ACAD_REACTORS
330
D
102
}
330
D
100
AcDbGroup
300

 70
     1
 71
     1
340
12A91
340
12A90
340
12A8F
340
12A8E
340
12A8D
340
12A8C
340
12A8B
340
12A8A
340
12A89
340
12A88
340
12A87
340
12A86
340
12A85
340
12A84
340
12A83
340
12A82
340
12A81
340
12A80
340
12A7F
340
12A7E
340
12A7D
340
12A7C
340
12A7B
340
12A7A
340
12A79
340
12A78
340
12A77
340
12A76
340
12A75
340
12A74
340
12A73
340
12A72
340
12A71
340
12A70
340
12A6F
340
12A6E
340
12A6D
340
12A6C
340
12A6B
340
12A6A
340
12A69
340
12A68
340
12A67
340
12A66
340
12A65
340
12A64
340
12A63
340
12A62
340
12A61
340
12A60
340
12A5F
340
12A59
340
12A58
340
12A57
340
12A53
340
12A52
  0
GROUP
  5
2FD3
102
{ACAD_REACTORS
330
D
102
}
330
D
100
AcDbGroup
300

 70
     1
 71
     1
  0
GROUP
  5
9685
102
{ACAD_REACTORS
330
D
102
}
330
D
100
AcDbGroup
300

 70
     1
 71
     1
  0
GROUP
  5
8E12
102
{ACAD_REACTORS
330
D
102
}
330
D
100
AcDbGroup
300

 70
     1
 71
     1
  0
GROUP
  5
1C01
102
{ACAD_REACTORS
330
D
102
}
330
D
100
AcDbGroup
300

 70
     1
 71
     1
  0
GROUP
  5
364F
102
{ACAD_REACTORS
330
D
102
}
330
D
100
AcDbGroup
300

 70
     1
 71
     1
  0
GROUP
  5
CD6
102
{ACAD_REACTORS
330
D
102
}
330
D
100
AcDbGroup
300

 70
     1
 71
     1
  0
GROUP
  5
8E44
102
{ACAD_REACTORS
330
D
102
}
330
D
100
AcDbGroup
300

 70
     1
 71
     1
  0
GROUP
  5
1815
102
{ACAD_REACTORS
330
D
102
}
330
D
100
AcDbGroup
300

 70
     1
 71
     1
  0
GROUP
  5
FF56
102
{ACAD_REACTORS
330
D
102
}
330
D
100
AcDbGroup
300

 70
     1
 71
     1
  0
GROUP
  5
9A95
102
{ACAD_REACTORS
330
D
102
}
330
D
100
AcDbGroup
300

 70
     1
 71
     1
  0
GROUP
  5
12AE4
102
{ACAD_REACTORS
330
D
102
}
330
D
100
AcDbGroup
300

 70
     1
 71
     1
  0
GROUP
  5
F3E5
102
{ACAD_REACTORS
330
D
102
}
330
D
100
AcDbGroup
300

 70
     1
 71
     1
  0
GROUP
  5
8E45
102
{ACAD_REACTORS
330
D
102
}
330
D
100
AcDbGroup
300

 70
     1
 71
     1
  0
GROUP
  5
10B3
102
{ACAD_REACTORS
330
D
102
}
330
D
100
AcDbGroup
300

 70
     1
 71
     1
  0
GROUP
  5
14B2
102
{ACAD_REACTORS
330
D
102
}
330
D
100
AcDbGroup
300

 70
     1
 71
     1
  0
GROUP
  5
2E95
102
{ACAD_REACTORS
330
D
102
}
330
D
100
AcDbGroup
300

 70
     1
 71
     1
  0
GROUP
  5
118B
102
{ACAD_REACTORS
330
D
102
}
330
D
100
AcDbGroup
300

 70
     1
 71
     1
  0
GROUP
  5
82B9
102
{ACAD_REACTORS
330
D
102
}
330
D
100
AcDbGroup
300

 70
     1
 71
     1
  0
GROUP
  5
817
102
{ACAD_REACTORS
330
D
102
}
330
D
100
AcDbGroup
300

 70
     1
 71
     1
  0
GROUP
  5
FA0B
102
{ACAD_REACTORS
330
D
102
}
330
D
100
AcDbGroup
300

 70
     1
 71
     1
  0
GROUP
  5
53F
102
{ACAD_REACTORS
330
D
102
}
330
D
100
AcDbGroup
300

 70
     1
 71
     1
  0
GROUP
  5
12AE5
102
{ACAD_REACTORS
330
D
102
}
330
D
100
AcDbGroup
300

 70
     1
 71
     1
  0
GROUP
  5
110CE
102
{ACAD_REACTORS
330
D
102
}
330
D
100
AcDbGroup
300

 70
     1
 71
     1
  0
GROUP
  5
9883
102
{ACAD_REACTORS
330
D
102
}
330
D
100
AcDbGroup
300

 70
     1
 71
     1
  0
GROUP
  5
3B52
102
{ACAD_REACTORS
330
D
102
}
330
D
100
AcDbGroup
300

 70
     1
 71
     1
  0
GROUP
  5
8E46
102
{ACAD_REACTORS
330
D
102
}
330
D
100
AcDbGroup
300

 70
     1
 71
     1
  0
GROUP
  5
8E47
102
{ACAD_REACTORS
330
D
102
}
330
D
100
AcDbGroup
300

 70
     1
 71
     1
  0
GROUP
  5
30BE
102
{ACAD_REACTORS
330
D
102
}
330
D
100
AcDbGroup
300

 70
     1
 71
     1
  0
GROUP
  5
3144
102
{ACAD_REACTORS
330
D
102
}
330
D
100
AcDbGroup
300

 70
     1
 71
     1
  0
GROUP
  5
32A4
102
{ACAD_REACTORS
330
D
102
}
330
D
100
AcDbGroup
300

 70
     1
 71
     1
  0
GROUP
  5
20FB
102
{ACAD_REACTORS
330
D
102
}
330
D
100
AcDbGroup
300

 70
     1
 71
     1
  0
GROUP
  5
CFD
102
{ACAD_REACTORS
330
D
102
}
330
D
100
AcDbGroup
300

 70
     1
 71
     1
  0
GROUP
  5
12B58
102
{ACAD_REACTORS
330
D
102
}
330
D
100
AcDbGroup
300

 70
     1
 71
     1
  0
GROUP
  5
8ECC
102
{ACAD_REACTORS
330
D
102
}
330
D
100
AcDbGroup
300

 70
     1
 71
     1
  0
GROUP
  5
112B5
102
{ACAD_REACTORS
330
D
102
}
330
D
100
AcDbGroup
300

 70
     1
 71
     1
  0
GROUP
  5
20DF
102
{ACAD_REACTORS
330
D
102
}
330
D
100
AcDbGroup
300

 70
     1
 71
     1
  0
GROUP
  5
8F5E
102
{ACAD_REACTORS
330
D
102
}
330
D
100
AcDbGroup
300

 70
     1
 71
     1
  0
GROUP
  5
1179
102
{ACAD_REACTORS
330
D
102
}
330
D
100
AcDbGroup
300

 70
     1
 71
     1
  0
GROUP
  5
2E23
102
{ACAD_REACTORS
330
D
102
}
330
D
100
AcDbGroup
300

 70
     1
 71
     1
  0
GROUP
  5
8ECD
102
{ACAD_REACTORS
330
D
102
}
330
D
100
AcDbGroup
300

 70
     1
 71
     1
  0
GROUP
  5
2771
102
{ACAD_REACTORS
330
D
102
}
330
D
100
AcDbGroup
300

 70
     1
 71
     1
  0
GROUP
  5
D62
102
{ACAD_REACTORS
330
D
102
}
330
D
100
AcDbGroup
300

 70
     1
 71
     1
  0
GROUP
  5
8ECE
102
{ACAD_REACTORS
330
D
102
}
330
D
100
AcDbGroup
300

 70
     1
 71
     1
  0
GROUP
  5
3C70
102
{ACAD_REACTORS
330
D
102
}
330
D
100
AcDbGroup
300

 70
     1
 71
     1
  0
GROUP
  5
CC6
102
{ACAD_REACTORS
330
D
102
}
330
D
100
AcDbGroup
300

 70
     1
 71
     1
  0
GROUP
  5
9A96
102
{ACAD_REACTORS
330
D
102
}
330
D
100
AcDbGroup
300

 70
     1
 71
     1
  0
GROUP
  5
1BE7
102
{ACAD_REACTORS
330
D
102
}
330
D
100
AcDbGroup
300

 70
     1
 71
     1
  0
GROUP
  5
2722
102
{ACAD_REACTORS
330
D
102
}
330
D
100
AcDbGroup
300

 70
     1
 71
     1
  0
GROUP
  5
1A87
102
{ACAD_REACTORS
330
D
102
}
330
D
100
AcDbGroup
300

 70
     1
 71
     1
  0
GROUP
  5
C8C1
102
{ACAD_REACTORS
330
D
102
}
330
D
100
AcDbGroup
300

 70
     1
 71
     1
  0
GROUP
  5
E561
102
{ACAD_REACTORS
330
D
102
}
330
D
100
AcDbGroup
300

 70
     1
 71
     1
  0
GROUP
  5
CC35
102
{ACAD_REACTORS
330
D
102
}
330
D
100
AcDbGroup
300

 70
     1
 71
     1
  0
GROUP
  5
CC36
102
{ACAD_REACTORS
330
D
102
}
330
D
100
AcDbGroup
300

 70
     1
 71
     1
  0
GROUP
  5
CC37
102
{ACAD_REACTORS
330
D
102
}
330
D
100
AcDbGroup
300

 70
     1
 71
     1
  0
GROUP
  5
3262
102
{ACAD_REACTORS
330
D
102
}
330
D
100
AcDbGroup
300

 70
     1
 71
     1
  0
GROUP
  5
CC38
102
{ACAD_REACTORS
330
D
102
}
330
D
100
AcDbGroup
300

 70
     1
 71
     1
  0
GROUP
  5
369C
102
{ACAD_REACTORS
330
D
102
}
330
D
100
AcDbGroup
300

 70
     1
 71
     1
  0
GROUP
  5
CC39
102
{ACAD_REACTORS
330
D
102
}
330
D
100
AcDbGroup
300

 70
     1
 71
     1
  0
GROUP
  5
9324
102
{ACAD_REACTORS
330
D
102
}
330
D
100
AcDbGroup
300

 70
     1
 71
     1
  0
GROUP
  5
CC3A
102
{ACAD_REACTORS
330
D
102
}
330
D
100
AcDbGroup
300

 70
     1
 71
     1
  0
GROUP
  5
208F
102
{ACAD_REACTORS
330
D
102
}
330
D
100
AcDbGroup
300

 70
     1
 71
     1
  0
GROUP
  5
9A97
102
{ACAD_REACTORS
330
D
102
}
330
D
100
AcDbGroup
300

 70
     1
 71
     1
  0
GROUP
  5
9C68
102
{ACAD_REACTORS
330
D
102
}
330
D
100
AcDbGroup
300

 70
     1
 71
     1
  0
GROUP
  5
8FB6
102
{ACAD_REACTORS
330
D
102
}
330
D
100
AcDbGroup
300

 70
     1
 71
     1
  0
GROUP
  5
3A2A
102
{ACAD_REACTORS
330
D
102
}
330
D
100
AcDbGroup
300

 70
     1
 71
     1
  0
GROUP
  5
12B87
102
{ACAD_REACTORS
330
D
102
}
330
D
100
AcDbGroup
300

 70
     1
 71
     1
340
12B55
340
12B54
340
12B53
340
12B52
340
12B51
340
12B50
340
12B4F
340
12B4E
340
12B4D
340
12B4C
340
12B4B
340
12B4A
340
12B49
340
12B48
340
12B47
340
12B46
340
12B45
340
12B44
340
12B43
340
12B42
340
12B41
340
12B40
340
12B3F
340
12B3E
340
12B3D
340
12B3C
340
12B3B
340
12B3A
340
12B39
340
12B38
340
12B37
340
12B36
340
12B35
340
12B34
340
12B33
340
12B32
340
12B31
340
12B30
340
12B2F
340
12B2E
340
12B2D
340
12B2C
340
12B2B
340
12B2A
340
12B29
340
12B28
340
12B27
340
12B25
340
12B24
340
12B23
340
12B22
340
12B21
340
12B20
340
12B1F
340
12B1E
340
12B1D
340
12B1C
340
12B1B
340
12B1A
340
12B19
340
12B18
340
12B17
340
12B16
  0
GROUP
  5
8FB5
102
{ACAD_REACTORS
330
D
102
}
330
D
100
AcDbGroup
300

 70
     1
 71
     1
  0
GROUP
  5
CC3B
102
{ACAD_REACTORS
330
D
102
}
330
D
100
AcDbGroup
300

 70
     1
 71
     1
  0
GROUP
  5
3C58
102
{ACAD_REACTORS
330
D
102
}
330
D
100
AcDbGroup
300

 70
     1
 71
     1
  0
GROUP
  5
2264
102
{ACAD_REACTORS
330
D
102
}
330
D
100
AcDbGroup
300

 70
     1
 71
     1
  0
GROUP
  5
CC3C
102
{ACAD_REACTORS
330
D
102
}
330
D
100
AcDbGroup
300

 70
     1
 71
     1
  0
GROUP
  5
CC3D
102
{ACAD_REACTORS
330
D
102
}
330
D
100
AcDbGroup
300

 70
     1
 71
     1
  0
GROUP
  5
CC3E
102
{ACAD_REACTORS
330
D
102
}
330
D
100
AcDbGroup
300

 70
     1
 71
     1
  0
GROUP
  5
CC3F
102
{ACAD_REACTORS
330
D
102
}
330
D
100
AcDbGroup
300

 70
     1
 71
     1
  0
GROUP
  5
CC40
102
{ACAD_REACTORS
330
D
102
}
330
D
100
AcDbGroup
300

 70
     1
 71
     1
  0
GROUP
  5
CC41
102
{ACAD_REACTORS
330
D
102
}
330
D
100
AcDbGroup
300

 70
     1
 71
     1
  0
GROUP
  5
12B8D
102
{ACAD_REACTORS
330
D
102
}
330
D
100
AcDbGroup
300

 70
     1
 71
     1
340
12B85
340
12B84
340
12B83
340
12B82
340
12B81
340
12B80
340
12B7F
340
12B7E
340
12B7D
340
12B7C
340
12B7B
340
12B7A
340
12B79
340
12B78
340
12B77
340
12B76
340
12B75
340
12B74
340
12B73
340
12B72
340
12B71
340
12B70
340
12B6F
340
12B6E
340
12B6D
340
12B6C
340
12B6B
340
12B6A
340
12B69
340
12B68
340
12B67
340
12B66
340
12B65
340
12B64
340
12B63
340
12B62
340
12B61
340
12B60
340
12B5F
340
12B5E
  0
GROUP
  5
CC42
102
{ACAD_REACTORS
330
D
102
}
330
D
100
AcDbGroup
300

 70
     1
 71
     1
  0
GROUP
  5
74F1
102
{ACAD_REACTORS
330
D
102
}
330
D
100
AcDbGroup
300

 70
     1
 71
     1
  0
GROUP
  5
9C69
102
{ACAD_REACTORS
330
D
102
}
330
D
100
AcDbGroup
300

 70
     1
 71
     1
  0
GROUP
  5
7740
102
{ACAD_REACTORS
330
D
102
}
330
D
100
AcDbGroup
300

 70
     1
 71
     1
  0
GROUP
  5
9374
102
{ACAD_REACTORS
330
D
102
}
330
D
100
AcDbGroup
300

 70
     1
 71
     1
  0
GROUP
  5
1027F
102
{ACAD_REACTORS
330
D
102
}
330
D
100
AcDbGroup
300

 70
     1
 71
     1
  0
GROUP
  5
9A98
102
{ACAD_REACTORS
330
D
102
}
330
D
100
AcDbGroup
300

 70
     1
 71
     1
  0
GROUP
  5
1C32
102
{ACAD_REACTORS
330
D
102
}
330
D
100
AcDbGroup
300

 70
     1
 71
     1
  0
GROUP
  5
CC43
102
{ACAD_REACTORS
330
D
102
}
330
D
100
AcDbGroup
300

 70
     1
 71
     1
  0
GROUP
  5
CC44
102
{ACAD_REACTORS
330
D
102
}
330
D
100
AcDbGroup
300

 70
     1
 71
     1
  0
GROUP
  5
CC5E
102
{ACAD_REACTORS
330
D
102
}
330
D
100
AcDbGroup
300

 70
     1
 71
     1
  0
GROUP
  5
39F1
102
{ACAD_REACTORS
330
D
102
}
330
D
100
AcDbGroup
300

 70
     1
 71
     1
  0
GROUP
  5
CCD1
102
{ACAD_REACTORS
330
D
102
}
330
D
100
AcDbGroup
300

 70
     1
 71
     1
  0
GROUP
  5
9D2C
102
{ACAD_REACTORS
330
D
102
}
330
D
100
AcDbGroup
300

 70
     1
 71
     1
  0
GROUP
  5
3D23
102
{ACAD_REACTORS
330
D
102
}
330
D
100
AcDbGroup
300

 70
     1
 71
     1
  0
GROUP
  5
CD25
102
{ACAD_REACTORS
330
D
102
}
330
D
100
AcDbGroup
300

 70
     1
 71
     1
  0
GROUP
  5
10285
102
{ACAD_REACTORS
330
D
102
}
330
D
100
AcDbGroup
300

 70
     1
 71
     1
  0
GROUP
  5
CDF9
102
{ACAD_REACTORS
330
D
102
}
330
D
100
AcDbGroup
300

 70
     1
 71
     1
  0
GROUP
  5
CE56
102
{ACAD_REACTORS
330
D
102
}
330
D
100
AcDbGroup
300

 70
     1
 71
     1
  0
GROUP
  5
3B6D
102
{ACAD_REACTORS
330
D
102
}
330
D
100
AcDbGroup
300

 70
     1
 71
     1
  0
GROUP
  5
12BAF
102
{ACAD_REACTORS
330
D
102
}
330
D
100
AcDbGroup
300

 70
     1
 71
     1
  0
GROUP
  5
D162
102
{ACAD_REACTORS
330
D
102
}
330
D
100
AcDbGroup
300

 70
     1
 71
     1
  0
GROUP
  5
110E4
102
{ACAD_REACTORS
330
D
102
}
330
D
100
AcDbGroup
300

 70
     1
 71
     1
  0
GROUP
  5
D163
102
{ACAD_REACTORS
330
D
102
}
330
D
100
AcDbGroup
300

 70
     1
 71
     1
  0
GROUP
  5
369
102
{ACAD_REACTORS
330
D
102
}
330
D
100
AcDbGroup
300

 70
     1
 71
     1
  0
GROUP
  5
9379
102
{ACAD_REACTORS
330
D
102
}
330
D
100
AcDbGroup
300

 70
     1
 71
     1
  0
GROUP
  5
12BD8
102
{ACAD_REACTORS
330
D
102
}
330
D
100
AcDbGroup
300

 70
     1
 71
     1
340
12BD3
340
12BD1
340
12BCF
340
1290B
340
1290A
340
12909
340
12908
340
12907
340
12906
340
12902
340
12901
340
12900
340
128FF
  0
GROUP
  5
12BF0
102
{ACAD_REACTORS
330
D
102
}
330
D
100
AcDbGroup
300

 70
     1
 71
     1
340
12BA7
340
12BA6
340
12BA5
340
12BA4
340
12BA3
340
12BA2
340
12BA1
340
12BA0
340
12B9F
340
12B9E
340
12B9D
340
12B9C
340
12B9B
340
12B9A
  0
GROUP
  5
12BF1
102
{ACAD_REACTORS
330
D
102
}
330
D
100
AcDbGroup
300

 70
     1
 71
     1
340
127D1
340
127D0
340
127CF
340
127CE
340
127CD
340
127CC
340
127CB
340
127CA
340
127C9
340
127C8
340
127C7
340
127C6
  0
GROUP
  5
3692
102
{ACAD_REACTORS
330
D
102
}
330
D
100
AcDbGroup
300

 70
     1
 71
     1
  0
GROUP
  5
3C88
102
{ACAD_REACTORS
330
D
102
}
330
D
100
AcDbGroup
300

 70
     1
 71
     1
  0
GROUP
  5
110E5
102
{ACAD_REACTORS
330
D
102
}
330
D
100
AcDbGroup
300

 70
     1
 71
     1
  0
GROUP
  5
36CA
102
{ACAD_REACTORS
330
D
102
}
330
D
100
AcDbGroup
300

 70
     1
 71
     1
  0
GROUP
  5
3CB5
102
{ACAD_REACTORS
330
D
102
}
330
D
100
AcDbGroup
300

 70
     1
 71
     1
  0
GROUP
  5
27FD
102
{ACAD_REACTORS
330
D
102
}
330
D
100
AcDbGroup
300

 70
     1
 71
     1
  0
GROUP
  5
E563
102
{ACAD_REACTORS
330
D
102
}
330
D
100
AcDbGroup
300

 70
     1
 71
     1
  0
GROUP
  5
10294
102
{ACAD_REACTORS
330
D
102
}
330
D
100
AcDbGroup
300

 70
     1
 71
     1
  0
GROUP
  5
1C4E
102
{ACAD_REACTORS
330
D
102
}
330
D
100
AcDbGroup
300

 70
     1
 71
     1
  0
GROUP
  5
3A14
102
{ACAD_REACTORS
330
D
102
}
330
D
100
AcDbGroup
300

 70
     1
 71
     1
  0
GROUP
  5
20F1
102
{ACAD_REACTORS
330
D
102
}
330
D
100
AcDbGroup
300

 70
     1
 71
     1
  0
GROUP
  5
D169
102
{ACAD_REACTORS
330
D
102
}
330
D
100
AcDbGroup
300

 70
     1
 71
     1
  0
GROUP
  5
F99
102
{ACAD_REACTORS
330
D
102
}
330
D
100
AcDbGroup
300

 70
     1
 71
     1
  0
GROUP
  5
2DDC
102
{ACAD_REACTORS
330
D
102
}
330
D
100
AcDbGroup
300

 70
     1
 71
     1
  0
GROUP
  5
3998
102
{ACAD_REACTORS
330
D
102
}
330
D
100
AcDbGroup
300

 70
     1
 71
     1
  0
GROUP
  5
1AC3
102
{ACAD_REACTORS
330
D
102
}
330
D
100
AcDbGroup
300

 70
     1
 71
     1
  0
GROUP
  5
112C8
102
{ACAD_REACTORS
330
D
102
}
330
D
100
AcDbGroup
300

 70
     1
 71
     1
  0
GROUP
  5
8D5F
102
{ACAD_REACTORS
330
D
102
}
330
D
100
AcDbGroup
300

 70
     1
 71
     1
  0
GROUP
  5
30B3
102
{ACAD_REACTORS
330
D
102
}
330
D
100
AcDbGroup
300

 70
     1
 71
     1
  0
GROUP
  5
3CD6
102
{ACAD_REACTORS
330
D
102
}
330
D
100
AcDbGroup
300

 70
     1
 71
     1
  0
GROUP
  5
E564
102
{ACAD_REACTORS
330
D
102
}
330
D
100
AcDbGroup
300

 70
     1
 71
     1
  0
GROUP
  5
2DFB
102
{ACAD_REACTORS
330
D
102
}
330
D
100
AcDbGroup
300

 70
     1
 71
     1
  0
GROUP
  5
D16A
102
{ACAD_REACTORS
330
D
102
}
330
D
100
AcDbGroup
300

 70
     1
 71
     1
  0
GROUP
  5
D948
102
{ACAD_REACTORS
330
D
102
}
330
D
100
AcDbGroup
300

 70
     1
 71
     1
  0
GROUP
  5
547
102
{ACAD_REACTORS
330
D
102
}
330
D
100
AcDbGroup
300

 70
     1
 71
     1
  0
GROUP
  5
10528
102
{ACAD_REACTORS
330
D
102
}
330
D
100
AcDbGroup
300

 70
     1
 71
     1
  0
GROUP
  5
FA0D
102
{ACAD_REACTORS
330
D
102
}
330
D
100
AcDbGroup
300

 70
     1
 71
     1
  0
GROUP
  5
542
102
{ACAD_REACTORS
330
D
102
}
330
D
100
AcDbGroup
300

 70
     1
 71
     1
  0
GROUP
  5
E116
102
{ACAD_REACTORS
330
D
102
}
330
D
100
AcDbGroup
300

 70
     1
 71
     1
  0
GROUP
  5
36CC
102
{ACAD_REACTORS
330
D
102
}
330
D
100
AcDbGroup
300

 70
     1
 71
     1
  0
GROUP
  5
20F0
102
{ACAD_REACTORS
330
D
102
}
330
D
100
AcDbGroup
300

 70
     1
 71
     1
  0
GROUP
  5
3D45
102
{ACAD_REACTORS
330
D
102
}
330
D
100
AcDbGroup
300

 70
     1
 71
     1
  0
GROUP
  5
9012
102
{ACAD_REACTORS
330
D
102
}
330
D
100
AcDbGroup
300

 70
     1
 71
     1
  0
GROUP
  5
E109
102
{ACAD_REACTORS
330
D
102
}
330
D
100
AcDbGroup
300

 70
     1
 71
     1
  0
GROUP
  5
112C9
102
{ACAD_REACTORS
330
D
102
}
330
D
100
AcDbGroup
300

 70
     1
 71
     1
  0
GROUP
  5
F45
102
{ACAD_REACTORS
330
D
102
}
330
D
100
AcDbGroup
300

 70
     1
 71
     1
  0
GROUP
  5
DA4
102
{ACAD_REACTORS
330
D
102
}
330
D
100
AcDbGroup
300

 70
     1
 71
     1
  0
GROUP
  5
D90
102
{ACAD_REACTORS
330
D
102
}
330
D
100
AcDbGroup
300

 70
     1
 71
     1
  0
GROUP
  5
CA0
102
{ACAD_REACTORS
330
D
102
}
330
D
100
AcDbGroup
300

 70
     1
 71
     1
  0
GROUP
  5
300A
102
{ACAD_REACTORS
330
D
102
}
330
D
100
AcDbGroup
300

 70
     1
 71
     1
  0
GROUP
  5
2597
102
{ACAD_REACTORS
330
D
102
}
330
D
100
AcDbGroup
300

 70
     1
 71
     1
  0
GROUP
  5
E122
102
{ACAD_REACTORS
330
D
102
}
330
D
100
AcDbGroup
300

 70
     1
 71
     1
  0
GROUP
  5
FA0E
102
{ACAD_REACTORS
330
D
102
}
330
D
100
AcDbGroup
300

 70
     1
 71
     1
  0
GROUP
  5
10685
102
{ACAD_REACTORS
330
D
102
}
330
D
100
AcDbGroup
300

 70
     1
 71
     1
  0
GROUP
  5
9A99
102
{ACAD_REACTORS
330
D
102
}
330
D
100
AcDbGroup
300

 70
     1
 71
     1
  0
GROUP
  5
357D
102
{ACAD_REACTORS
330
D
102
}
330
D
100
AcDbGroup
300

 70
     1
 71
     1
  0
GROUP
  5
FC0
102
{ACAD_REACTORS
330
D
102
}
330
D
100
AcDbGroup
300

 70
     1
 71
     1
  0
GROUP
  5
3707
102
{ACAD_REACTORS
330
D
102
}
330
D
100
AcDbGroup
300

 70
     1
 71
     1
  0
GROUP
  5
2DCD
102
{ACAD_REACTORS
330
D
102
}
330
D
100
AcDbGroup
300

 70
     1
 71
     1
  0
GROUP
  5
3196
102
{ACAD_REACTORS
330
D
102
}
330
D
100
AcDbGroup
300

 70
     1
 71
     1
  0
GROUP
  5
E565
102
{ACAD_REACTORS
330
D
102
}
330
D
100
AcDbGroup
300

 70
     1
 71
     1
  0
GROUP
  5
3CB6
102
{ACAD_REACTORS
330
D
102
}
330
D
100
AcDbGroup
300

 70
     1
 71
     1
  0
GROUP
  5
BF1
102
{ACAD_REACTORS
330
D
102
}
330
D
100
AcDbGroup
300

 70
     1
 71
     1
  0
GROUP
  5
9621
102
{ACAD_REACTORS
330
D
102
}
330
D
100
AcDbGroup
300

 70
     1
 71
     1
  0
GROUP
  5
9887
102
{ACAD_REACTORS
330
D
102
}
330
D
100
AcDbGroup
300

 70
     1
 71
     1
  0
GROUP
  5
112B8
102
{ACAD_REACTORS
330
D
102
}
330
D
100
AcDbGroup
300

 70
     1
 71
     1
  0
GROUP
  5
9013
102
{ACAD_REACTORS
330
D
102
}
330
D
100
AcDbGroup
300

 70
     1
 71
     1
  0
GROUP
  5
31F2
102
{ACAD_REACTORS
330
D
102
}
330
D
100
AcDbGroup
300

 70
     1
 71
     1
  0
GROUP
  5
9A9E
102
{ACAD_REACTORS
330
D
102
}
330
D
100
AcDbGroup
300

 70
     1
 71
     1
  0
GROUP
  5
3398
102
{ACAD_REACTORS
330
D
102
}
330
D
100
AcDbGroup
300

 70
     1
 71
     1
  0
GROUP
  5
3B88
102
{ACAD_REACTORS
330
D
102
}
330
D
100
AcDbGroup
300

 70
     1
 71
     1
  0
GROUP
  5
32F2
102
{ACAD_REACTORS
330
D
102
}
330
D
100
AcDbGroup
300

 70
     1
 71
     1
  0
GROUP
  5
31B7
102
{ACAD_REACTORS
330
D
102
}
330
D
100
AcDbGroup
300

 70
     1
 71
     1
  0
GROUP
  5
3267
102
{ACAD_REACTORS
330
D
102
}
330
D
100
AcDbGroup
300

 70
     1
 71
     1
  0
GROUP
  5
988A
102
{ACAD_REACTORS
330
D
102
}
330
D
100
AcDbGroup
300

 70
     1
 71
     1
  0
GROUP
  5
E566
102
{ACAD_REACTORS
330
D
102
}
330
D
100
AcDbGroup
300

 70
     1
 71
     1
  0
GROUP
  5
D16B
102
{ACAD_REACTORS
330
D
102
}
330
D
100
AcDbGroup
300

 70
     1
 71
     1
  0
GROUP
  5
DAF
102
{ACAD_REACTORS
330
D
102
}
330
D
100
AcDbGroup
300

 70
     1
 71
     1
  0
GROUP
  5
940C
102
{ACAD_REACTORS
330
D
102
}
330
D
100
AcDbGroup
300

 70
     1
 71
     1
  0
GROUP
  5
2132
102
{ACAD_REACTORS
330
D
102
}
330
D
100
AcDbGroup
300

 70
     1
 71
     1
  0
GROUP
  5
8D60
102
{ACAD_REACTORS
330
D
102
}
330
D
100
AcDbGroup
300

 70
     1
 71
     1
  0
GROUP
  5
D949
102
{ACAD_REACTORS
330
D
102
}
330
D
100
AcDbGroup
300

 70
     1
 71
     1
  0
GROUP
  5
36D2
102
{ACAD_REACTORS
330
D
102
}
330
D
100
AcDbGroup
300

 70
     1
 71
     1
  0
GROUP
  5
7741
102
{ACAD_REACTORS
330
D
102
}
330
D
100
AcDbGroup
300

 70
     1
 71
     1
  0
GROUP
  5
9622
102
{ACAD_REACTORS
330
D
102
}
330
D
100
AcDbGroup
300

 70
     1
 71
     1
  0
GROUP
  5
FA0F
102
{ACAD_REACTORS
330
D
102
}
330
D
100
AcDbGroup
300

 70
     1
 71
     1
  0
GROUP
  5
338D
102
{ACAD_REACTORS
330
D
102
}
330
D
100
AcDbGroup
300

 70
     1
 71
     1
  0
GROUP
  5
D16C
102
{ACAD_REACTORS
330
D
102
}
330
D
100
AcDbGroup
300

 70
     1
 71
     1
  0
GROUP
  5
92D5
102
{ACAD_REACTORS
330
D
102
}
330
D
100
AcDbGroup
300

 70
     1
 71
     1
  0
GROUP
  5
10B91
102
{ACAD_REACTORS
330
D
102
}
330
D
100
AcDbGroup
300

 70
     1
 71
     1
  0
GROUP
  5
9A9D
102
{ACAD_REACTORS
330
D
102
}
330
D
100
AcDbGroup
300

 70
     1
 71
     1
  0
GROUP
  5
E12E
102
{ACAD_REACTORS
330
D
102
}
330
D
100
AcDbGroup
300

 70
     1
 71
     1
  0
GROUP
  5
3A29
102
{ACAD_REACTORS
330
D
102
}
330
D
100
AcDbGroup
300

 70
     1
 71
     1
  0
GROUP
  5
940B
102
{ACAD_REACTORS
330
D
102
}
330
D
100
AcDbGroup
300

 70
     1
 71
     1
  0
GROUP
  5
2FFC
102
{ACAD_REACTORS
330
D
102
}
330
D
100
AcDbGroup
300

 70
     1
 71
     1
  0
GROUP
  5
BEA
102
{ACAD_REACTORS
330
D
102
}
330
D
100
AcDbGroup
300

 70
     1
 71
     1
  0
GROUP
  5
3271
102
{ACAD_REACTORS
330
D
102
}
330
D
100
AcDbGroup
300

 70
     1
 71
     1
  0
GROUP
  5
C32
102
{ACAD_REACTORS
330
D
102
}
330
D
100
AcDbGroup
300

 70
     1
 71
     1
  0
GROUP
  5
2D02
102
{ACAD_REACTORS
330
D
102
}
330
D
100
AcDbGroup
300

 70
     1
 71
     1
  0
GROUP
  5
36D7
102
{ACAD_REACTORS
330
D
102
}
330
D
100
AcDbGroup
300

 70
     1
 71
     1
  0
GROUP
  5
1A06
102
{ACAD_REACTORS
330
D
102
}
330
D
100
AcDbGroup
300

 70
     1
 71
     1
  0
GROUP
  5
FA10
102
{ACAD_REACTORS
330
D
102
}
330
D
100
AcDbGroup
300

 70
     1
 71
     1
  0
GROUP
  5
1C15
102
{ACAD_REACTORS
330
D
102
}
330
D
100
AcDbGroup
300

 70
     1
 71
     1
  0
GROUP
  5
9623
102
{ACAD_REACTORS
330
D
102
}
330
D
100
AcDbGroup
300

 70
     1
 71
     1
  0
GROUP
  5
E55A
102
{ACAD_REACTORS
330
D
102
}
330
D
100
AcDbGroup
300

 70
     1
 71
     1
  0
GROUP
  5
D94A
102
{ACAD_REACTORS
330
D
102
}
330
D
100
AcDbGroup
300

 70
     1
 71
     1
  0
GROUP
  5
4CC
102
{ACAD_REACTORS
330
D
102
}
330
D
100
AcDbGroup
300

 70
     1
 71
     1
  0
GROUP
  5
1650
102
{ACAD_REACTORS
330
D
102
}
330
D
100
AcDbGroup
300

 70
     1
 71
     1
  0
GROUP
  5
8D61
102
{ACAD_REACTORS
330
D
102
}
330
D
100
AcDbGroup
300

 70
     1
 71
     1
  0
GROUP
  5
D947
102
{ACAD_REACTORS
330
D
102
}
330
D
100
AcDbGroup
300

 70
     1
 71
     1
  0
GROUP
  5
3A37
102
{ACAD_REACTORS
330
D
102
}
330
D
100
AcDbGroup
300

 70
     1
 71
     1
  0
GROUP
  5
10BF0
102
{ACAD_REACTORS
330
D
102
}
330
D
100
AcDbGroup
300

 70
     1
 71
     1
  0
GROUP
  5
2D25
102
{ACAD_REACTORS
330
D
102
}
330
D
100
AcDbGroup
300

 70
     1
 71
     1
  0
GROUP
  5
3B3F
102
{ACAD_REACTORS
330
D
102
}
330
D
100
AcDbGroup
300

 70
     1
 71
     1
  0
GROUP
  5
92D6
102
{ACAD_REACTORS
330
D
102
}
330
D
100
AcDbGroup
300

 70
     1
 71
     1
  0
GROUP
  5
1B63
102
{ACAD_REACTORS
330
D
102
}
330
D
100
AcDbGroup
300

 70
     1
 71
     1
  0
GROUP
  5
83F5
102
{ACAD_REACTORS
330
D
102
}
330
D
100
AcDbGroup
300

 70
     1
 71
     1
  0
GROUP
  5
7742
102
{ACAD_REACTORS
330
D
102
}
330
D
100
AcDbGroup
300

 70
     1
 71
     1
  0
GROUP
  5
E08C
102
{ACAD_REACTORS
330
D
102
}
330
D
100
AcDbGroup
300

 70
     1
 71
     1
  0
GROUP
  5
D94B
102
{ACAD_REACTORS
330
D
102
}
330
D
100
AcDbGroup
300

 70
     1
 71
     1
  0
GROUP
  5
FA11
102
{ACAD_REACTORS
330
D
102
}
330
D
100
AcDbGroup
300

 70
     1
 71
     1
  0
GROUP
  5
D16D
102
{ACAD_REACTORS
330
D
102
}
330
D
100
AcDbGroup
300

 70
     1
 71
     1
  0
GROUP
  5
3A4B
102
{ACAD_REACTORS
330
D
102
}
330
D
100
AcDbGroup
300

 70
     1
 71
     1
  0
GROUP
  5
208C
102
{ACAD_REACTORS
330
D
102
}
330
D
100
AcDbGroup
300

 70
     1
 71
     1
  0
GROUP
  5
E567
102
{ACAD_REACTORS
330
D
102
}
330
D
100
AcDbGroup
300

 70
     1
 71
     1
  0
GROUP
  5
A0D1
102
{ACAD_REACTORS
330
D
102
}
330
D
100
AcDbGroup
300

 70
     1
 71
     1
  0
GROUP
  5
A0D2
102
{ACAD_REACTORS
330
D
102
}
330
D
100
AcDbGroup
300

 70
     1
 71
     1
  0
GROUP
  5
3A62
102
{ACAD_REACTORS
330
D
102
}
330
D
100
AcDbGroup
300

 70
     1
 71
     1
  0
GROUP
  5
110C9
102
{ACAD_REACTORS
330
D
102
}
330
D
100
AcDbGroup
300

 70
     1
 71
     1
  0
GROUP
  5
A0D3
102
{ACAD_REACTORS
330
D
102
}
330
D
100
AcDbGroup
300

 70
     1
 71
     1
  0
GROUP
  5
A0D4
102
{ACAD_REACTORS
330
D
102
}
330
D
100
AcDbGroup
300

 70
     1
 71
     1
  0
GROUP
  5
D94C
102
{ACAD_REACTORS
330
D
102
}
330
D
100
AcDbGroup
300

 70
     1
 71
     1
  0
GROUP
  5
9409
102
{ACAD_REACTORS
330
D
102
}
330
D
100
AcDbGroup
300

 70
     1
 71
     1
  0
GROUP
  5
21B4
102
{ACAD_REACTORS
330
D
102
}
330
D
100
AcDbGroup
300

 70
     1
 71
     1
  0
GROUP
  5
A0D5
102
{ACAD_REACTORS
330
D
102
}
330
D
100
AcDbGroup
300

 70
     1
 71
     1
  0
GROUP
  5
E135
102
{ACAD_REACTORS
330
D
102
}
330
D
100
AcDbGroup
300

 70
     1
 71
     1
  0
GROUP
  5
87A9
102
{ACAD_REACTORS
330
D
102
}
330
D
100
AcDbGroup
300

 70
     1
 71
     1
  0
GROUP
  5
3A6D
102
{ACAD_REACTORS
330
D
102
}
330
D
100
AcDbGroup
300

 70
     1
 71
     1
  0
GROUP
  5
E568
102
{ACAD_REACTORS
330
D
102
}
330
D
100
AcDbGroup
300

 70
     1
 71
     1
  0
GROUP
  5
8D62
102
{ACAD_REACTORS
330
D
102
}
330
D
100
AcDbGroup
300

 70
     1
 71
     1
  0
GROUP
  5
A0D6
102
{ACAD_REACTORS
330
D
102
}
330
D
100
AcDbGroup
300

 70
     1
 71
     1
  0
GROUP
  5
E14
102
{ACAD_REACTORS
330
D
102
}
330
D
100
AcDbGroup
300

 70
     1
 71
     1
  0
GROUP
  5
1246
102
{ACAD_REACTORS
330
D
102
}
330
D
100
AcDbGroup
300

 70
     1
 71
     1
  0
GROUP
  5
D16E
102
{ACAD_REACTORS
330
D
102
}
330
D
100
AcDbGroup
300

 70
     1
 71
     1
  0
GROUP
  5
D965
102
{ACAD_REACTORS
330
D
102
}
330
D
100
AcDbGroup
300

 70
     1
 71
     1
  0
GROUP
  5
A0D7
102
{ACAD_REACTORS
330
D
102
}
330
D
100
AcDbGroup
300

 70
     1
 71
     1
  0
GROUP
  5
3223
102
{ACAD_REACTORS
330
D
102
}
330
D
100
AcDbGroup
300

 70
     1
 71
     1
  0
GROUP
  5
9625
102
{ACAD_REACTORS
330
D
102
}
330
D
100
AcDbGroup
300

 70
     1
 71
     1
  0
GROUP
  5
E175
102
{ACAD_REACTORS
330
D
102
}
330
D
100
AcDbGroup
300

 70
     1
 71
     1
  0
GROUP
  5
3573
102
{ACAD_REACTORS
330
D
102
}
330
D
100
AcDbGroup
300

 70
     1
 71
     1
  0
GROUP
  5
A0D8
102
{ACAD_REACTORS
330
D
102
}
330
D
100
AcDbGroup
300

 70
     1
 71
     1
  0
GROUP
  5
1518
102
{ACAD_REACTORS
330
D
102
}
330
D
100
AcDbGroup
300

 70
     1
 71
     1
  0
GROUP
  5
21B9
102
{ACAD_REACTORS
330
D
102
}
330
D
100
AcDbGroup
300

 70
     1
 71
     1
  0
GROUP
  5
8FB2
102
{ACAD_REACTORS
330
D
102
}
330
D
100
AcDbGroup
300

 70
     1
 71
     1
  0
GROUP
  5
D17D
102
{ACAD_REACTORS
330
D
102
}
330
D
100
AcDbGroup
300

 70
     1
 71
     1
  0
GROUP
  5
FA12
102
{ACAD_REACTORS
330
D
102
}
330
D
100
AcDbGroup
300

 70
     1
 71
     1
  0
GROUP
  5
110CF
102
{ACAD_REACTORS
330
D
102
}
330
D
100
AcDbGroup
300

 70
     1
 71
     1
  0
GROUP
  5
A0D9
102
{ACAD_REACTORS
330
D
102
}
330
D
100
AcDbGroup
300

 70
     1
 71
     1
  0
GROUP
  5
A0DA
102
{ACAD_REACTORS
330
D
102
}
330
D
100
AcDbGroup
300

 70
     1
 71
     1
  0
GROUP
  5
92D7
102
{ACAD_REACTORS
330
D
102
}
330
D
100
AcDbGroup
300

 70
     1
 71
     1
  0
GROUP
  5
A0DB
102
{ACAD_REACTORS
330
D
102
}
330
D
100
AcDbGroup
300

 70
     1
 71
     1
  0
GROUP
  5
E541
102
{ACAD_REACTORS
330
D
102
}
330
D
100
AcDbGroup
300

 70
     1
 71
     1
  0
GROUP
  5
A0DC
102
{ACAD_REACTORS
330
D
102
}
330
D
100
AcDbGroup
300

 70
     1
 71
     1
  0
GROUP
  5
DAA
102
{ACAD_REACTORS
330
D
102
}
330
D
100
AcDbGroup
300

 70
     1
 71
     1
  0
GROUP
  5
988C
102
{ACAD_REACTORS
330
D
102
}
330
D
100
AcDbGroup
300

 70
     1
 71
     1
  0
GROUP
  5
10293
102
{ACAD_REACTORS
330
D
102
}
330
D
100
AcDbGroup
300

 70
     1
 71
     1
  0
GROUP
  5
27AE
102
{ACAD_REACTORS
330
D
102
}
330
D
100
AcDbGroup
300

 70
     1
 71
     1
  0
GROUP
  5
E574
102
{ACAD_REACTORS
330
D
102
}
330
D
100
AcDbGroup
300

 70
     1
 71
     1
  0
GROUP
  5
17A4
102
{ACAD_REACTORS
330
D
102
}
330
D
100
AcDbGroup
300

 70
     1
 71
     1
  0
GROUP
  5
370D
102
{ACAD_REACTORS
330
D
102
}
330
D
100
AcDbGroup
300

 70
     1
 71
     1
  0
GROUP
  5
A25D
102
{ACAD_REACTORS
330
D
102
}
330
D
100
AcDbGroup
300

 70
     1
 71
     1
  0
GROUP
  5
FBBD
102
{ACAD_REACTORS
330
D
102
}
330
D
100
AcDbGroup
300

 70
     1
 71
     1
  0
GROUP
  5
A25E
102
{ACAD_REACTORS
330
D
102
}
330
D
100
AcDbGroup
300

 70
     1
 71
     1
  0
GROUP
  5
184C
102
{ACAD_REACTORS
330
D
102
}
330
D
100
AcDbGroup
300

 70
     1
 71
     1
  0
GROUP
  5
74F0
102
{ACAD_REACTORS
330
D
102
}
330
D
100
AcDbGroup
300

 70
     1
 71
     1
  0
GROUP
  5
17DB
102
{ACAD_REACTORS
330
D
102
}
330
D
100
AcDbGroup
300

 70
     1
 71
     1
  0
GROUP
  5
110EA
102
{ACAD_REACTORS
330
D
102
}
330
D
100
AcDbGroup
300

 70
     1
 71
     1
  0
GROUP
  5
77D7
102
{ACAD_REACTORS
330
D
102
}
330
D
100
AcDbGroup
300

 70
     1
 71
     1
  0
GROUP
  5
A25F
102
{ACAD_REACTORS
330
D
102
}
330
D
100
AcDbGroup
300

 70
     1
 71
     1
  0
GROUP
  5
92D8
102
{ACAD_REACTORS
330
D
102
}
330
D
100
AcDbGroup
300

 70
     1
 71
     1
  0
GROUP
  5
9DFF
102
{ACAD_REACTORS
330
D
102
}
330
D
100
AcDbGroup
300

 70
     1
 71
     1
  0
GROUP
  5
A260
102
{ACAD_REACTORS
330
D
102
}
330
D
100
AcDbGroup
300

 70
     1
 71
     1
  0
GROUP
  5
E580
102
{ACAD_REACTORS
330
D
102
}
330
D
100
AcDbGroup
300

 70
     1
 71
     1
  0
GROUP
  5
F33
102
{ACAD_REACTORS
330
D
102
}
330
D
100
AcDbGroup
300

 70
     1
 71
     1
  0
GROUP
  5
A261
102
{ACAD_REACTORS
330
D
102
}
330
D
100
AcDbGroup
300

 70
     1
 71
     1
  0
GROUP
  5
3218
102
{ACAD_REACTORS
330
D
102
}
330
D
100
AcDbGroup
300

 70
     1
 71
     1
  0
GROUP
  5
FBBE
102
{ACAD_REACTORS
330
D
102
}
330
D
100
AcDbGroup
300

 70
     1
 71
     1
  0
GROUP
  5
D194
102
{ACAD_REACTORS
330
D
102
}
330
D
100
AcDbGroup
300

 70
     1
 71
     1
  0
GROUP
  5
E542
102
{ACAD_REACTORS
330
D
102
}
330
D
100
AcDbGroup
300

 70
     1
 71
     1
  0
GROUP
  5
110CA
102
{ACAD_REACTORS
330
D
102
}
330
D
100
AcDbGroup
300

 70
     1
 71
     1
  0
GROUP
  5
38BF
102
{ACAD_REACTORS
330
D
102
}
330
D
100
AcDbGroup
300

 70
     1
 71
     1
  0
GROUP
  5
A262
102
{ACAD_REACTORS
330
D
102
}
330
D
100
AcDbGroup
300

 70
     1
 71
     1
  0
GROUP
  5
D966
102
{ACAD_REACTORS
330
D
102
}
330
D
100
AcDbGroup
300

 70
     1
 71
     1
  0
GROUP
  5
2EAA
102
{ACAD_REACTORS
330
D
102
}
330
D
100
AcDbGroup
300

 70
     1
 71
     1
  0
GROUP
  5
3A92
102
{ACAD_REACTORS
330
D
102
}
330
D
100
AcDbGroup
300

 70
     1
 71
     1
  0
GROUP
  5
A263
102
{ACAD_REACTORS
330
D
102
}
330
D
100
AcDbGroup
300

 70
     1
 71
     1
  0
GROUP
  5
9889
102
{ACAD_REACTORS
330
D
102
}
330
D
100
AcDbGroup
300

 70
     1
 71
     1
  0
GROUP
  5
A264
102
{ACAD_REACTORS
330
D
102
}
330
D
100
AcDbGroup
300

 70
     1
 71
     1
  0
GROUP
  5
D4B
102
{ACAD_REACTORS
330
D
102
}
330
D
100
AcDbGroup
300

 70
     1
 71
     1
  0
GROUP
  5
A265
102
{ACAD_REACTORS
330
D
102
}
330
D
100
AcDbGroup
300

 70
     1
 71
     1
  0
GROUP
  5
71B0
102
{ACAD_REACTORS
330
D
102
}
330
D
100
AcDbGroup
300

 70
     1
 71
     1
  0
GROUP
  5
3971
102
{ACAD_REACTORS
330
D
102
}
330
D
100
AcDbGroup
300

 70
     1
 71
     1
  0
GROUP
  5
A266
102
{ACAD_REACTORS
330
D
102
}
330
D
100
AcDbGroup
300

 70
     1
 71
     1
  0
GROUP
  5
FC75
102
{ACAD_REACTORS
330
D
102
}
330
D
100
AcDbGroup
300

 70
     1
 71
     1
  0
GROUP
  5
3B35
102
{ACAD_REACTORS
330
D
102
}
330
D
100
AcDbGroup
300

 70
     1
 71
     1
  0
GROUP
  5
2EB5
102
{ACAD_REACTORS
330
D
102
}
330
D
100
AcDbGroup
300

 70
     1
 71
     1
  0
GROUP
  5
A267
102
{ACAD_REACTORS
330
D
102
}
330
D
100
AcDbGroup
300

 70
     1
 71
     1
  0
GROUP
  5
77D8
102
{ACAD_REACTORS
330
D
102
}
330
D
100
AcDbGroup
300

 70
     1
 71
     1
  0
GROUP
  5
1025
102
{ACAD_REACTORS
330
D
102
}
330
D
100
AcDbGroup
300

 70
     1
 71
     1
  0
GROUP
  5
D1AB
102
{ACAD_REACTORS
330
D
102
}
330
D
100
AcDbGroup
300

 70
     1
 71
     1
  0
GROUP
  5
F71
102
{ACAD_REACTORS
330
D
102
}
330
D
100
AcDbGroup
300

 70
     1
 71
     1
  0
GROUP
  5
E58D
102
{ACAD_REACTORS
330
D
102
}
330
D
100
AcDbGroup
300

 70
     1
 71
     1
  0
GROUP
  5
A268
102
{ACAD_REACTORS
330
D
102
}
330
D
100
AcDbGroup
300

 70
     1
 71
     1
  0
GROUP
  5
36FB
102
{ACAD_REACTORS
330
D
102
}
330
D
100
AcDbGroup
300

 70
     1
 71
     1
  0
GROUP
  5
E543
102
{ACAD_REACTORS
330
D
102
}
330
D
100
AcDbGroup
300

 70
     1
 71
     1
  0
GROUP
  5
EF7
102
{ACAD_REACTORS
330
D
102
}
330
D
100
AcDbGroup
300

 70
     1
 71
     1
  0
GROUP
  5
3D08
102
{ACAD_REACTORS
330
D
102
}
330
D
100
AcDbGroup
300

 70
     1
 71
     1
  0
GROUP
  5
FD7
102
{ACAD_REACTORS
330
D
102
}
330
D
100
AcDbGroup
300

 70
     1
 71
     1
  0
GROUP
  5
83F6
102
{ACAD_REACTORS
330
D
102
}
330
D
100
AcDbGroup
300

 70
     1
 71
     1
  0
GROUP
  5
725D
102
{ACAD_REACTORS
330
D
102
}
330
D
100
AcDbGroup
300

 70
     1
 71
     1
  0
GROUP
  5
39B2
102
{ACAD_REACTORS
330
D
102
}
330
D
100
AcDbGroup
300

 70
     1
 71
     1
  0
GROUP
  5
1013
102
{ACAD_REACTORS
330
D
102
}
330
D
100
AcDbGroup
300

 70
     1
 71
     1
  0
GROUP
  5
1C64
102
{ACAD_REACTORS
330
D
102
}
330
D
100
AcDbGroup
300

 70
     1
 71
     1
  0
GROUP
  5
8D63
102
{ACAD_REACTORS
330
D
102
}
330
D
100
AcDbGroup
300

 70
     1
 71
     1
  0
GROUP
  5
A274
102
{ACAD_REACTORS
330
D
102
}
330
D
100
AcDbGroup
300

 70
     1
 71
     1
  0
GROUP
  5
1C4F
102
{ACAD_REACTORS
330
D
102
}
330
D
100
AcDbGroup
300

 70
     1
 71
     1
  0
GROUP
  5
11105
102
{ACAD_REACTORS
330
D
102
}
330
D
100
AcDbGroup
300

 70
     1
 71
     1
  0
GROUP
  5
E58E
102
{ACAD_REACTORS
330
D
102
}
330
D
100
AcDbGroup
300

 70
     1
 71
     1
  0
GROUP
  5
E545
102
{ACAD_REACTORS
330
D
102
}
330
D
100
AcDbGroup
300

 70
     1
 71
     1
  0
GROUP
  5
12D9
102
{ACAD_REACTORS
330
D
102
}
330
D
100
AcDbGroup
300

 70
     1
 71
     1
  0
GROUP
  5
3CFC
102
{ACAD_REACTORS
330
D
102
}
330
D
100
AcDbGroup
300

 70
     1
 71
     1
  0
GROUP
  5
9626
102
{ACAD_REACTORS
330
D
102
}
330
D
100
AcDbGroup
300

 70
     1
 71
     1
  0
GROUP
  5
725C
102
{ACAD_REACTORS
330
D
102
}
330
D
100
AcDbGroup
300

 70
     1
 71
     1
  0
GROUP
  5
A279
102
{ACAD_REACTORS
330
D
102
}
330
D
100
AcDbGroup
300

 70
     1
 71
     1
  0
GROUP
  5
A433
102
{ACAD_REACTORS
330
D
102
}
330
D
100
AcDbGroup
300

 70
     1
 71
     1
  0
GROUP
  5
A434
102
{ACAD_REACTORS
330
D
102
}
330
D
100
AcDbGroup
300

 70
     1
 71
     1
  0
GROUP
  5
A435
102
{ACAD_REACTORS
330
D
102
}
330
D
100
AcDbGroup
300

 70
     1
 71
     1
  0
GROUP
  5
2080
102
{ACAD_REACTORS
330
D
102
}
330
D
100
AcDbGroup
300

 70
     1
 71
     1
  0
GROUP
  5
32DC
102
{ACAD_REACTORS
330
D
102
}
330
D
100
AcDbGroup
300

 70
     1
 71
     1
  0
GROUP
  5
2FF1
102
{ACAD_REACTORS
330
D
102
}
330
D
100
AcDbGroup
300

 70
     1
 71
     1
  0
GROUP
  5
30ED
102
{ACAD_REACTORS
330
D
102
}
330
D
100
AcDbGroup
300

 70
     1
 71
     1
  0
GROUP
  5
E562
102
{ACAD_REACTORS
330
D
102
}
330
D
100
AcDbGroup
300

 70
     1
 71
     1
  0
GROUP
  5
D97B
102
{ACAD_REACTORS
330
D
102
}
330
D
100
AcDbGroup
300

 70
     1
 71
     1
  0
GROUP
  5
D1C9
102
{ACAD_REACTORS
330
D
102
}
330
D
100
AcDbGroup
300

 70
     1
 71
     1
  0
GROUP
  5
11FE
102
{ACAD_REACTORS
330
D
102
}
330
D
100
AcDbGroup
300

 70
     1
 71
     1
  0
GROUP
  5
E546
102
{ACAD_REACTORS
330
D
102
}
330
D
100
AcDbGroup
300

 70
     1
 71
     1
  0
GROUP
  5
E58F
102
{ACAD_REACTORS
330
D
102
}
330
D
100
AcDbGroup
300

 70
     1
 71
     1
  0
GROUP
  5
326C
102
{ACAD_REACTORS
330
D
102
}
330
D
100
AcDbGroup
300

 70
     1
 71
     1
  0
GROUP
  5
A436
102
{ACAD_REACTORS
330
D
102
}
330
D
100
AcDbGroup
300

 70
     1
 71
     1
  0
GROUP
  5
3B93
102
{ACAD_REACTORS
330
D
102
}
330
D
100
AcDbGroup
300

 70
     1
 71
     1
  0
GROUP
  5
2728
102
{ACAD_REACTORS
330
D
102
}
330
D
100
AcDbGroup
300

 70
     1
 71
     1
  0
GROUP
  5
3242
102
{ACAD_REACTORS
330
D
102
}
330
D
100
AcDbGroup
300

 70
     1
 71
     1
  0
GROUP
  5
8D64
102
{ACAD_REACTORS
330
D
102
}
330
D
100
AcDbGroup
300

 70
     1
 71
     1
  0
GROUP
  5
A437
102
{ACAD_REACTORS
330
D
102
}
330
D
100
AcDbGroup
300

 70
     1
 71
     1
  0
GROUP
  5
2746
102
{ACAD_REACTORS
330
D
102
}
330
D
100
AcDbGroup
300

 70
     1
 71
     1
  0
GROUP
  5
DA13
102
{ACAD_REACTORS
330
D
102
}
330
D
100
AcDbGroup
300

 70
     1
 71
     1
  0
GROUP
  5
14AD
102
{ACAD_REACTORS
330
D
102
}
330
D
100
AcDbGroup
300

 70
     1
 71
     1
  0
GROUP
  5
A438
102
{ACAD_REACTORS
330
D
102
}
330
D
100
AcDbGroup
300

 70
     1
 71
     1
  0
GROUP
  5
9888
102
{ACAD_REACTORS
330
D
102
}
330
D
100
AcDbGroup
300

 70
     1
 71
     1
  0
GROUP
  5
FF52
102
{ACAD_REACTORS
330
D
102
}
330
D
100
AcDbGroup
300

 70
     1
 71
     1
  0
GROUP
  5
940D
102
{ACAD_REACTORS
330
D
102
}
330
D
100
AcDbGroup
300

 70
     1
 71
     1
  0
GROUP
  5
988D
102
{ACAD_REACTORS
330
D
102
}
330
D
100
AcDbGroup
300

 70
     1
 71
     1
  0
GROUP
  5
A439
102
{ACAD_REACTORS
330
D
102
}
330
D
100
AcDbGroup
300

 70
     1
 71
     1
  0
GROUP
  5
A5C8
102
{ACAD_REACTORS
330
D
102
}
330
D
100
AcDbGroup
300

 70
     1
 71
     1
  0
GROUP
  5
3961
102
{ACAD_REACTORS
330
D
102
}
330
D
100
AcDbGroup
300

 70
     1
 71
     1
  0
GROUP
  5
9C6B
102
{ACAD_REACTORS
330
D
102
}
330
D
100
AcDbGroup
300

 70
     1
 71
     1
  0
GROUP
  5
2742
102
{ACAD_REACTORS
330
D
102
}
330
D
100
AcDbGroup
300

 70
     1
 71
     1
  0
GROUP
  5
DA4F
102
{ACAD_REACTORS
330
D
102
}
330
D
100
AcDbGroup
300

 70
     1
 71
     1
  0
GROUP
  5
A5C9
102
{ACAD_REACTORS
330
D
102
}
330
D
100
AcDbGroup
300

 70
     1
 71
     1
  0
GROUP
  5
38D9
102
{ACAD_REACTORS
330
D
102
}
330
D
100
AcDbGroup
300

 70
     1
 71
     1
  0
GROUP
  5
A5CA
102
{ACAD_REACTORS
330
D
102
}
330
D
100
AcDbGroup
300

 70
     1
 71
     1
  0
GROUP
  5
E547
102
{ACAD_REACTORS
330
D
102
}
330
D
100
AcDbGroup
300

 70
     1
 71
     1
  0
GROUP
  5
9A9F
102
{ACAD_REACTORS
330
D
102
}
330
D
100
AcDbGroup
300

 70
     1
 71
     1
  0
GROUP
  5
3CD7
102
{ACAD_REACTORS
330
D
102
}
330
D
100
AcDbGroup
300

 70
     1
 71
     1
  0
GROUP
  5
1AE7
102
{ACAD_REACTORS
330
D
102
}
330
D
100
AcDbGroup
300

 70
     1
 71
     1
  0
GROUP
  5
70D1
102
{ACAD_REACTORS
330
D
102
}
330
D
100
AcDbGroup
300

 70
     1
 71
     1
  0
GROUP
  5
D1D8
102
{ACAD_REACTORS
330
D
102
}
330
D
100
AcDbGroup
300

 70
     1
 71
     1
  0
GROUP
  5
77D9
102
{ACAD_REACTORS
330
D
102
}
330
D
100
AcDbGroup
300

 70
     1
 71
     1
  0
GROUP
  5
110D2
102
{ACAD_REACTORS
330
D
102
}
330
D
100
AcDbGroup
300

 70
     1
 71
     1
  0
GROUP
  5
3C71
102
{ACAD_REACTORS
330
D
102
}
330
D
100
AcDbGroup
300

 70
     1
 71
     1
  0
GROUP
  5
A5CB
102
{ACAD_REACTORS
330
D
102
}
330
D
100
AcDbGroup
300

 70
     1
 71
     1
  0
GROUP
  5
3A7A
102
{ACAD_REACTORS
330
D
102
}
330
D
100
AcDbGroup
300

 70
     1
 71
     1
  0
GROUP
  5
A5CC
102
{ACAD_REACTORS
330
D
102
}
330
D
100
AcDbGroup
300

 70
     1
 71
     1
  0
GROUP
  5
2699
102
{ACAD_REACTORS
330
D
102
}
330
D
100
AcDbGroup
300

 70
     1
 71
     1
  0
GROUP
  5
11722
102
{ACAD_REACTORS
330
D
102
}
330
D
100
AcDbGroup
300

 70
     1
 71
     1
  0
GROUP
  5
A5CD
102
{ACAD_REACTORS
330
D
102
}
330
D
100
AcDbGroup
300

 70
     1
 71
     1
  0
GROUP
  5
A5CE
102
{ACAD_REACTORS
330
D
102
}
330
D
100
AcDbGroup
300

 70
     1
 71
     1
  0
GROUP
  5
2CFD
102
{ACAD_REACTORS
330
D
102
}
330
D
100
AcDbGroup
300

 70
     1
 71
     1
  0
GROUP
  5
110E6
102
{ACAD_REACTORS
330
D
102
}
330
D
100
AcDbGroup
300

 70
     1
 71
     1
  0
GROUP
  5
1C85
102
{ACAD_REACTORS
330
D
102
}
330
D
100
AcDbGroup
300

 70
     1
 71
     1
  0
GROUP
  5
A5CF
102
{ACAD_REACTORS
330
D
102
}
330
D
100
AcDbGroup
300

 70
     1
 71
     1
  0
GROUP
  5
3D39
102
{ACAD_REACTORS
330
D
102
}
330
D
100
AcDbGroup
300

 70
     1
 71
     1
  0
GROUP
  5
A5D0
102
{ACAD_REACTORS
330
D
102
}
330
D
100
AcDbGroup
300

 70
     1
 71
     1
  0
GROUP
  5
3582
102
{ACAD_REACTORS
330
D
102
}
330
D
100
AcDbGroup
300

 70
     1
 71
     1
  0
GROUP
  5
27B0
102
{ACAD_REACTORS
330
D
102
}
330
D
100
AcDbGroup
300

 70
     1
 71
     1
  0
GROUP
  5
11A4
102
{ACAD_REACTORS
330
D
102
}
330
D
100
AcDbGroup
300

 70
     1
 71
     1
  0
GROUP
  5
92D9
102
{ACAD_REACTORS
330
D
102
}
330
D
100
AcDbGroup
300

 70
     1
 71
     1
  0
GROUP
  5
1176F
102
{ACAD_REACTORS
330
D
102
}
330
D
100
AcDbGroup
300

 70
     1
 71
     1
  0
GROUP
  5
D266
102
{ACAD_REACTORS
330
D
102
}
330
D
100
AcDbGroup
300

 70
     1
 71
     1
  0
GROUP
  5
A5D1
102
{ACAD_REACTORS
330
D
102
}
330
D
100
AcDbGroup
300

 70
     1
 71
     1
  0
GROUP
  5
A5D2
102
{ACAD_REACTORS
330
D
102
}
330
D
100
AcDbGroup
300

 70
     1
 71
     1
  0
GROUP
  5
2EE0
102
{ACAD_REACTORS
330
D
102
}
330
D
100
AcDbGroup
300

 70
     1
 71
     1
  0
GROUP
  5
3624
102
{ACAD_REACTORS
330
D
102
}
330
D
100
AcDbGroup
300

 70
     1
 71
     1
  0
GROUP
  5
87AC
102
{ACAD_REACTORS
330
D
102
}
330
D
100
AcDbGroup
300

 70
     1
 71
     1
  0
GROUP
  5
2F4E
102
{ACAD_REACTORS
330
D
102
}
330
D
100
AcDbGroup
300

 70
     1
 71
     1
  0
GROUP
  5
89AF
102
{ACAD_REACTORS
330
D
102
}
330
D
100
AcDbGroup
300

 70
     1
 71
     1
  0
GROUP
  5
8D65
102
{ACAD_REACTORS
330
D
102
}
330
D
100
AcDbGroup
300

 70
     1
 71
     1
  0
GROUP
  5
1567
102
{ACAD_REACTORS
330
D
102
}
330
D
100
AcDbGroup
300

 70
     1
 71
     1
  0
GROUP
  5
A5D3
102
{ACAD_REACTORS
330
D
102
}
330
D
100
AcDbGroup
300

 70
     1
 71
     1
  0
GROUP
  5
9884
102
{ACAD_REACTORS
330
D
102
}
330
D
100
AcDbGroup
300

 70
     1
 71
     1
  0
GROUP
  5
A5D4
102
{ACAD_REACTORS
330
D
102
}
330
D
100
AcDbGroup
300

 70
     1
 71
     1
  0
GROUP
  5
3124
102
{ACAD_REACTORS
330
D
102
}
330
D
100
AcDbGroup
300

 70
     1
 71
     1
  0
GROUP
  5
38E6
102
{ACAD_REACTORS
330
D
102
}
330
D
100
AcDbGroup
300

 70
     1
 71
     1
  0
GROUP
  5
988E
102
{ACAD_REACTORS
330
D
102
}
330
D
100
AcDbGroup
300

 70
     1
 71
     1
  0
GROUP
  5
1D1C
102
{ACAD_REACTORS
330
D
102
}
330
D
100
AcDbGroup
300

 70
     1
 71
     1
  0
GROUP
  5
3CB4
102
{ACAD_REACTORS
330
D
102
}
330
D
100
AcDbGroup
300

 70
     1
 71
     1
  0
GROUP
  5
A5E0
102
{ACAD_REACTORS
330
D
102
}
330
D
100
AcDbGroup
300

 70
     1
 71
     1
  0
GROUP
  5
3B5D
102
{ACAD_REACTORS
330
D
102
}
330
D
100
AcDbGroup
300

 70
     1
 71
     1
  0
GROUP
  5
2F79
102
{ACAD_REACTORS
330
D
102
}
330
D
100
AcDbGroup
300

 70
     1
 71
     1
  0
GROUP
  5
146B
102
{ACAD_REACTORS
330
D
102
}
330
D
100
AcDbGroup
300

 70
     1
 71
     1
  0
GROUP
  5
D278
102
{ACAD_REACTORS
330
D
102
}
330
D
100
AcDbGroup
300

 70
     1
 71
     1
  0
GROUP
  5
E5A4
102
{ACAD_REACTORS
330
D
102
}
330
D
100
AcDbGroup
300

 70
     1
 71
     1
  0
GROUP
  5
9AA0
102
{ACAD_REACTORS
330
D
102
}
330
D
100
AcDbGroup
300

 70
     1
 71
     1
  0
GROUP
  5
A5E7
102
{ACAD_REACTORS
330
D
102
}
330
D
100
AcDbGroup
300

 70
     1
 71
     1
  0
GROUP
  5
11786
102
{ACAD_REACTORS
330
D
102
}
330
D
100
AcDbGroup
300

 70
     1
 71
     1
  0
GROUP
  5
AB7A
102
{ACAD_REACTORS
330
D
102
}
330
D
100
AcDbGroup
300

 70
     1
 71
     1
  0
GROUP
  5
AB7B
102
{ACAD_REACTORS
330
D
102
}
330
D
100
AcDbGroup
300

 70
     1
 71
     1
  0
GROUP
  5
DA50
102
{ACAD_REACTORS
330
D
102
}
330
D
100
AcDbGroup
300

 70
     1
 71
     1
  0
GROUP
  5
AB7C
102
{ACAD_REACTORS
330
D
102
}
330
D
100
AcDbGroup
300

 70
     1
 71
     1
  0
GROUP
  5
AB7D
102
{ACAD_REACTORS
330
D
102
}
330
D
100
AcDbGroup
300

 70
     1
 71
     1
  0
GROUP
  5
8D67
102
{ACAD_REACTORS
330
D
102
}
330
D
100
AcDbGroup
300

 70
     1
 71
     1
  0
GROUP
  5
10287
102
{ACAD_REACTORS
330
D
102
}
330
D
100
AcDbGroup
300

 70
     1
 71
     1
  0
GROUP
  5
1BB0
102
{ACAD_REACTORS
330
D
102
}
330
D
100
AcDbGroup
300

 70
     1
 71
     1
  0
GROUP
  5
988F
102
{ACAD_REACTORS
330
D
102
}
330
D
100
AcDbGroup
300

 70
     1
 71
     1
  0
GROUP
  5
10281
102
{ACAD_REACTORS
330
D
102
}
330
D
100
AcDbGroup
300

 70
     1
 71
     1
  0
GROUP
  5
1941
102
{ACAD_REACTORS
330
D
102
}
330
D
100
AcDbGroup
300

 70
     1
 71
     1
  0
GROUP
  5
26E4
102
{ACAD_REACTORS
330
D
102
}
330
D
100
AcDbGroup
300

 70
     1
 71
     1
  0
GROUP
  5
AB7E
102
{ACAD_REACTORS
330
D
102
}
330
D
100
AcDbGroup
300

 70
     1
 71
     1
  0
GROUP
  5
11944
102
{ACAD_REACTORS
330
D
102
}
330
D
100
AcDbGroup
300

 70
     1
 71
     1
  0
GROUP
  5
FF58
102
{ACAD_REACTORS
330
D
102
}
330
D
100
AcDbGroup
300

 70
     1
 71
     1
  0
GROUP
  5
DA51
102
{ACAD_REACTORS
330
D
102
}
330
D
100
AcDbGroup
300

 70
     1
 71
     1
  0
GROUP
  5
375
102
{ACAD_REACTORS
330
D
102
}
330
D
100
AcDbGroup
300

 70
     1
 71
     1
  0
GROUP
  5
2DD2
102
{ACAD_REACTORS
330
D
102
}
330
D
100
AcDbGroup
300

 70
     1
 71
     1
  0
GROUP
  5
D28B
102
{ACAD_REACTORS
330
D
102
}
330
D
100
AcDbGroup
300

 70
     1
 71
     1
  0
GROUP
  5
92DA
102
{ACAD_REACTORS
330
D
102
}
330
D
100
AcDbGroup
300

 70
     1
 71
     1
  0
GROUP
  5
1C28
102
{ACAD_REACTORS
330
D
102
}
330
D
100
AcDbGroup
300

 70
     1
 71
     1
  0
GROUP
  5
39D9
102
{ACAD_REACTORS
330
D
102
}
330
D
100
AcDbGroup
300

 70
     1
 71
     1
  0
GROUP
  5
AB7F
102
{ACAD_REACTORS
330
D
102
}
330
D
100
AcDbGroup
300

 70
     1
 71
     1
  0
GROUP
  5
2FD2
102
{ACAD_REACTORS
330
D
102
}
330
D
100
AcDbGroup
300

 70
     1
 71
     1
  0
GROUP
  5
2D20
102
{ACAD_REACTORS
330
D
102
}
330
D
100
AcDbGroup
300

 70
     1
 71
     1
  0
GROUP
  5
55F
102
{ACAD_REACTORS
330
D
102
}
330
D
100
AcDbGroup
300

 70
     1
 71
     1
  0
GROUP
  5
11945
102
{ACAD_REACTORS
330
D
102
}
330
D
100
AcDbGroup
300

 70
     1
 71
     1
  0
GROUP
  5
112B6
102
{ACAD_REACTORS
330
D
102
}
330
D
100
AcDbGroup
300

 70
     1
 71
     1
  0
GROUP
  5
2825
102
{ACAD_REACTORS
330
D
102
}
330
D
100
AcDbGroup
300

 70
     1
 71
     1
  0
GROUP
  5
19AE
102
{ACAD_REACTORS
330
D
102
}
330
D
100
AcDbGroup
300

 70
     1
 71
     1
  0
GROUP
  5
9627
102
{ACAD_REACTORS
330
D
102
}
330
D
100
AcDbGroup
300

 70
     1
 71
     1
  0
GROUP
  5
9AA1
102
{ACAD_REACTORS
330
D
102
}
330
D
100
AcDbGroup
300

 70
     1
 71
     1
  0
GROUP
  5
AB80
102
{ACAD_REACTORS
330
D
102
}
330
D
100
AcDbGroup
300

 70
     1
 71
     1
  0
GROUP
  5
AB81
102
{ACAD_REACTORS
330
D
102
}
330
D
100
AcDbGroup
300

 70
     1
 71
     1
  0
GROUP
  5
AB82
102
{ACAD_REACTORS
330
D
102
}
330
D
100
AcDbGroup
300

 70
     1
 71
     1
  0
GROUP
  5
82B6
102
{ACAD_REACTORS
330
D
102
}
330
D
100
AcDbGroup
300

 70
     1
 71
     1
  0
GROUP
  5
1CC1
102
{ACAD_REACTORS
330
D
102
}
330
D
100
AcDbGroup
300

 70
     1
 71
     1
  0
GROUP
  5
D9F
102
{ACAD_REACTORS
330
D
102
}
330
D
100
AcDbGroup
300

 70
     1
 71
     1
  0
GROUP
  5
1076
102
{ACAD_REACTORS
330
D
102
}
330
D
100
AcDbGroup
300

 70
     1
 71
     1
  0
GROUP
  5
D936
102
{ACAD_REACTORS
330
D
102
}
330
D
100
AcDbGroup
300

 70
     1
 71
     1
  0
GROUP
  5
126D
102
{ACAD_REACTORS
330
D
102
}
330
D
100
AcDbGroup
300

 70
     1
 71
     1
  0
GROUP
  5
DC6D
102
{ACAD_REACTORS
330
D
102
}
330
D
100
AcDbGroup
300

 70
     1
 71
     1
  0
GROUP
  5
11946
102
{ACAD_REACTORS
330
D
102
}
330
D
100
AcDbGroup
300

 70
     1
 71
     1
  0
GROUP
  5
AB83
102
{ACAD_REACTORS
330
D
102
}
330
D
100
AcDbGroup
300

 70
     1
 71
     1
  0
GROUP
  5
7909
102
{ACAD_REACTORS
330
D
102
}
330
D
100
AcDbGroup
300

 70
     1
 71
     1
  0
GROUP
  5
BF6
102
{ACAD_REACTORS
330
D
102
}
330
D
100
AcDbGroup
300

 70
     1
 71
     1
  0
GROUP
  5
12C7
102
{ACAD_REACTORS
330
D
102
}
330
D
100
AcDbGroup
300

 70
     1
 71
     1
  0
GROUP
  5
2748
102
{ACAD_REACTORS
330
D
102
}
330
D
100
AcDbGroup
300

 70
     1
 71
     1
  0
GROUP
  5
AB84
102
{ACAD_REACTORS
330
D
102
}
330
D
100
AcDbGroup
300

 70
     1
 71
     1
  0
GROUP
  5
9628
102
{ACAD_REACTORS
330
D
102
}
330
D
100
AcDbGroup
300

 70
     1
 71
     1
  0
GROUP
  5
AB85
102
{ACAD_REACTORS
330
D
102
}
330
D
100
AcDbGroup
300

 70
     1
 71
     1
  0
GROUP
  5
D51E
102
{ACAD_REACTORS
330
D
102
}
330
D
100
AcDbGroup
300

 70
     1
 71
     1
  0
GROUP
  5
AB8A
102
{ACAD_REACTORS
330
D
102
}
330
D
100
AcDbGroup
300

 70
     1
 71
     1
  0
GROUP
  5
71AF
102
{ACAD_REACTORS
330
D
102
}
330
D
100
AcDbGroup
300

 70
     1
 71
     1
  0
GROUP
  5
491
102
{ACAD_REACTORS
330
D
102
}
330
D
100
AcDbGroup
300

 70
     1
 71
     1
  0
GROUP
  5
42F
102
{ACAD_REACTORS
330
D
102
}
330
D
100
AcDbGroup
300

 70
     1
 71
     1
  0
GROUP
  5
11948
102
{ACAD_REACTORS
330
D
102
}
330
D
100
AcDbGroup
300

 70
     1
 71
     1
  0
GROUP
  5
E75C
102
{ACAD_REACTORS
330
D
102
}
330
D
100
AcDbGroup
300

 70
     1
 71
     1
  0
GROUP
  5
AB96
102
{ACAD_REACTORS
330
D
102
}
330
D
100
AcDbGroup
300

 70
     1
 71
     1
  0
GROUP
  5
1310
102
{ACAD_REACTORS
330
D
102
}
330
D
100
AcDbGroup
300

 70
     1
 71
     1
  0
GROUP
  5
75E
102
{ACAD_REACTORS
330
D
102
}
330
D
100
AcDbGroup
300

 70
     1
 71
     1
  0
GROUP
  5
AFE9
102
{ACAD_REACTORS
330
D
102
}
330
D
100
AcDbGroup
300

 70
     1
 71
     1
  0
GROUP
  5
D51F
102
{ACAD_REACTORS
330
D
102
}
330
D
100
AcDbGroup
300

 70
     1
 71
     1
  0
GROUP
  5
92EB
102
{ACAD_REACTORS
330
D
102
}
330
D
100
AcDbGroup
300

 70
     1
 71
     1
  0
GROUP
  5
40E
102
{ACAD_REACTORS
330
D
102
}
330
D
100
AcDbGroup
300

 70
     1
 71
     1
  0
GROUP
  5
3CD8
102
{ACAD_REACTORS
330
D
102
}
330
D
100
AcDbGroup
300

 70
     1
 71
     1
  0
GROUP
  5
8FB3
102
{ACAD_REACTORS
330
D
102
}
330
D
100
AcDbGroup
300

 70
     1
 71
     1
  0
GROUP
  5
B048
102
{ACAD_REACTORS
330
D
102
}
330
D
100
AcDbGroup
300

 70
     1
 71
     1
  0
GROUP
  5
17DA
102
{ACAD_REACTORS
330
D
102
}
330
D
100
AcDbGroup
300

 70
     1
 71
     1
  0
GROUP
  5
11949
102
{ACAD_REACTORS
330
D
102
}
330
D
100
AcDbGroup
300

 70
     1
 71
     1
  0
GROUP
  5
2745
102
{ACAD_REACTORS
330
D
102
}
330
D
100
AcDbGroup
300

 70
     1
 71
     1
  0
GROUP
  5
B3B
102
{ACAD_REACTORS
330
D
102
}
330
D
100
AcDbGroup
300

 70
     1
 71
     1
  0
GROUP
  5
110CB
102
{ACAD_REACTORS
330
D
102
}
330
D
100
AcDbGroup
300

 70
     1
 71
     1
  0
GROUP
  5
D520
102
{ACAD_REACTORS
330
D
102
}
330
D
100
AcDbGroup
300

 70
     1
 71
     1
  0
GROUP
  5
DE8
102
{ACAD_REACTORS
330
D
102
}
330
D
100
AcDbGroup
300

 70
     1
 71
     1
  0
GROUP
  5
1B81
102
{ACAD_REACTORS
330
D
102
}
330
D
100
AcDbGroup
300

 70
     1
 71
     1
  0
GROUP
  5
B087
102
{ACAD_REACTORS
330
D
102
}
330
D
100
AcDbGroup
300

 70
     1
 71
     1
  0
GROUP
  5
1883
102
{ACAD_REACTORS
330
D
102
}
330
D
100
AcDbGroup
300

 70
     1
 71
     1
  0
GROUP
  5
3706
102
{ACAD_REACTORS
330
D
102
}
330
D
100
AcDbGroup
300

 70
     1
 71
     1
  0
GROUP
  5
B09E
102
{ACAD_REACTORS
330
D
102
}
330
D
100
AcDbGroup
300

 70
     1
 71
     1
  0
GROUP
  5
1CA7
102
{ACAD_REACTORS
330
D
102
}
330
D
100
AcDbGroup
300

 70
     1
 71
     1
  0
GROUP
  5
D9A
102
{ACAD_REACTORS
330
D
102
}
330
D
100
AcDbGroup
300

 70
     1
 71
     1
  0
GROUP
  5
1197C
102
{ACAD_REACTORS
330
D
102
}
330
D
100
AcDbGroup
300

 70
     1
 71
     1
  0
GROUP
  5
9890
102
{ACAD_REACTORS
330
D
102
}
330
D
100
AcDbGroup
300

 70
     1
 71
     1
  0
GROUP
  5
1BBA
102
{ACAD_REACTORS
330
D
102
}
330
D
100
AcDbGroup
300

 70
     1
 71
     1
  0
GROUP
  5
4D5
102
{ACAD_REACTORS
330
D
102
}
330
D
100
AcDbGroup
300

 70
     1
 71
     1
  0
GROUP
  5
1210
102
{ACAD_REACTORS
330
D
102
}
330
D
100
AcDbGroup
300

 70
     1
 71
     1
  0
GROUP
  5
15C3
102
{ACAD_REACTORS
330
D
102
}
330
D
100
AcDbGroup
300

 70
     1
 71
     1
  0
GROUP
  5
87AA
102
{ACAD_REACTORS
330
D
102
}
330
D
100
AcDbGroup
300

 70
     1
 71
     1
  0
GROUP
  5
DC6E
102
{ACAD_REACTORS
330
D
102
}
330
D
100
AcDbGroup
300

 70
     1
 71
     1
  0
GROUP
  5
39C9
102
{ACAD_REACTORS
330
D
102
}
330
D
100
AcDbGroup
300

 70
     1
 71
     1
  0
GROUP
  5
12A3
102
{ACAD_REACTORS
330
D
102
}
330
D
100
AcDbGroup
300

 70
     1
 71
     1
  0
GROUP
  5
9629
102
{ACAD_REACTORS
330
D
102
}
330
D
100
AcDbGroup
300

 70
     1
 71
     1
  0
GROUP
  5
3BA0
102
{ACAD_REACTORS
330
D
102
}
330
D
100
AcDbGroup
300

 70
     1
 71
     1
  0
GROUP
  5
E1E
102
{ACAD_REACTORS
330
D
102
}
330
D
100
AcDbGroup
300

 70
     1
 71
     1
  0
GROUP
  5
3651
102
{ACAD_REACTORS
330
D
102
}
330
D
100
AcDbGroup
300

 70
     1
 71
     1
  0
GROUP
  5
11CB6
102
{ACAD_REACTORS
330
D
102
}
330
D
100
AcDbGroup
300

 70
     1
 71
     1
  0
GROUP
  5
434
102
{ACAD_REACTORS
330
D
102
}
330
D
100
AcDbGroup
300

 70
     1
 71
     1
  0
GROUP
  5
2107
102
{ACAD_REACTORS
330
D
102
}
330
D
100
AcDbGroup
300

 70
     1
 71
     1
  0
GROUP
  5
2EFD
102
{ACAD_REACTORS
330
D
102
}
330
D
100
AcDbGroup
300

 70
     1
 71
     1
  0
GROUP
  5
1115C
102
{ACAD_REACTORS
330
D
102
}
330
D
100
AcDbGroup
300

 70
     1
 71
     1
  0
GROUP
  5
DD0A
102
{ACAD_REACTORS
330
D
102
}
330
D
100
AcDbGroup
300

 70
     1
 71
     1
  0
GROUP
  5
3257
102
{ACAD_REACTORS
330
D
102
}
330
D
100
AcDbGroup
300

 70
     1
 71
     1
  0
GROUP
  5
3D5C
102
{ACAD_REACTORS
330
D
102
}
330
D
100
AcDbGroup
300

 70
     1
 71
     1
  0
GROUP
  5
459
102
{ACAD_REACTORS
330
D
102
}
330
D
100
AcDbGroup
300

 70
     1
 71
     1
  0
GROUP
  5
7968
102
{ACAD_REACTORS
330
D
102
}
330
D
100
AcDbGroup
300

 70
     1
 71
     1
  0
GROUP
  5
8F8D
102
{ACAD_REACTORS
330
D
102
}
330
D
100
AcDbGroup
300

 70
     1
 71
     1
  0
GROUP
  5
1BC1
102
{ACAD_REACTORS
330
D
102
}
330
D
100
AcDbGroup
300

 70
     1
 71
     1
  0
GROUP
  5
318B
102
{ACAD_REACTORS
330
D
102
}
330
D
100
AcDbGroup
300

 70
     1
 71
     1
  0
GROUP
  5
11CB7
102
{ACAD_REACTORS
330
D
102
}
330
D
100
AcDbGroup
300

 70
     1
 71
     1
  0
GROUP
  5
1BB5
102
{ACAD_REACTORS
330
D
102
}
330
D
100
AcDbGroup
300

 70
     1
 71
     1
  0
GROUP
  5
1090
102
{ACAD_REACTORS
330
D
102
}
330
D
100
AcDbGroup
300

 70
     1
 71
     1
  0
GROUP
  5
2B5
102
{ACAD_REACTORS
330
D
102
}
330
D
100
AcDbGroup
300

 70
     1
 71
     1
  0
GROUP
  5
DD0B
102
{ACAD_REACTORS
330
D
102
}
330
D
100
AcDbGroup
300

 70
     1
 71
     1
  0
GROUP
  5
2118
102
{ACAD_REACTORS
330
D
102
}
330
D
100
AcDbGroup
300

 70
     1
 71
     1
  0
GROUP
  5
3CFD
102
{ACAD_REACTORS
330
D
102
}
330
D
100
AcDbGroup
300

 70
     1
 71
     1
  0
GROUP
  5
311E
102
{ACAD_REACTORS
330
D
102
}
330
D
100
AcDbGroup
300

 70
     1
 71
     1
  0
GROUP
  5
D165
102
{ACAD_REACTORS
330
D
102
}
330
D
100
AcDbGroup
300

 70
     1
 71
     1
  0
GROUP
  5
D521
102
{ACAD_REACTORS
330
D
102
}
330
D
100
AcDbGroup
300

 70
     1
 71
     1
  0
GROUP
  5
3D22
102
{ACAD_REACTORS
330
D
102
}
330
D
100
AcDbGroup
300

 70
     1
 71
     1
  0
GROUP
  5
FF53
102
{ACAD_REACTORS
330
D
102
}
330
D
100
AcDbGroup
300

 70
     1
 71
     1
  0
GROUP
  5
D8D
102
{ACAD_REACTORS
330
D
102
}
330
D
100
AcDbGroup
300

 70
     1
 71
     1
  0
GROUP
  5
3578
102
{ACAD_REACTORS
330
D
102
}
330
D
100
AcDbGroup
300

 70
     1
 71
     1
  0
GROUP
  5
9C6E
102
{ACAD_REACTORS
330
D
102
}
330
D
100
AcDbGroup
300

 70
     1
 71
     1
  0
GROUP
  5
F5F
102
{ACAD_REACTORS
330
D
102
}
330
D
100
AcDbGroup
300

 70
     1
 71
     1
  0
GROUP
  5
3956
102
{ACAD_REACTORS
330
D
102
}
330
D
100
AcDbGroup
300

 70
     1
 71
     1
  0
GROUP
  5
1B77
102
{ACAD_REACTORS
330
D
102
}
330
D
100
AcDbGroup
300

 70
     1
 71
     1
  0
GROUP
  5
3277
102
{ACAD_REACTORS
330
D
102
}
330
D
100
AcDbGroup
300

 70
     1
 71
     1
  0
GROUP
  5
2F28
102
{ACAD_REACTORS
330
D
102
}
330
D
100
AcDbGroup
300

 70
     1
 71
     1
  0
GROUP
  5
D522
102
{ACAD_REACTORS
330
D
102
}
330
D
100
AcDbGroup
300

 70
     1
 71
     1
  0
GROUP
  5
2F7F
102
{ACAD_REACTORS
330
D
102
}
330
D
100
AcDbGroup
300

 70
     1
 71
     1
  0
GROUP
  5
3CFB
102
{ACAD_REACTORS
330
D
102
}
330
D
100
AcDbGroup
300

 70
     1
 71
     1
  0
GROUP
  5
55A
102
{ACAD_REACTORS
330
D
102
}
330
D
100
AcDbGroup
300

 70
     1
 71
     1
  0
GROUP
  5
C77
102
{ACAD_REACTORS
330
D
102
}
330
D
100
AcDbGroup
300

 70
     1
 71
     1
  0
GROUP
  5
962A
102
{ACAD_REACTORS
330
D
102
}
330
D
100
AcDbGroup
300

 70
     1
 71
     1
  0
GROUP
  5
21CD
102
{ACAD_REACTORS
330
D
102
}
330
D
100
AcDbGroup
300

 70
     1
 71
     1
  0
GROUP
  5
11CB8
102
{ACAD_REACTORS
330
D
102
}
330
D
100
AcDbGroup
300

 70
     1
 71
     1
  0
GROUP
  5
7BC3
102
{ACAD_REACTORS
330
D
102
}
330
D
100
AcDbGroup
300

 70
     1
 71
     1
  0
GROUP
  5
DD0C
102
{ACAD_REACTORS
330
D
102
}
330
D
100
AcDbGroup
300

 70
     1
 71
     1
  0
GROUP
  5
2ECA
102
{ACAD_REACTORS
330
D
102
}
330
D
100
AcDbGroup
300

 70
     1
 71
     1
  0
GROUP
  5
1A89
102
{ACAD_REACTORS
330
D
102
}
330
D
100
AcDbGroup
300

 70
     1
 71
     1
  0
GROUP
  5
2087
102
{ACAD_REACTORS
330
D
102
}
330
D
100
AcDbGroup
300

 70
     1
 71
     1
  0
GROUP
  5
7BC
102
{ACAD_REACTORS
330
D
102
}
330
D
100
AcDbGroup
300

 70
     1
 71
     1
  0
GROUP
  5
1D9E
102
{ACAD_REACTORS
330
D
102
}
330
D
100
AcDbGroup
300

 70
     1
 71
     1
  0
GROUP
  5
11C8
102
{ACAD_REACTORS
330
D
102
}
330
D
100
AcDbGroup
300

 70
     1
 71
     1
  0
GROUP
  5
27B2
102
{ACAD_REACTORS
330
D
102
}
330
D
100
AcDbGroup
300

 70
     1
 71
     1
  0
GROUP
  5
8ECF
102
{ACAD_REACTORS
330
D
102
}
330
D
100
AcDbGroup
300

 70
     1
 71
     1
  0
GROUP
  5
1B59
102
{ACAD_REACTORS
330
D
102
}
330
D
100
AcDbGroup
300

 70
     1
 71
     1
  0
GROUP
  5
21C3
102
{ACAD_REACTORS
330
D
102
}
330
D
100
AcDbGroup
300

 70
     1
 71
     1
  0
GROUP
  5
11CB9
102
{ACAD_REACTORS
330
D
102
}
330
D
100
AcDbGroup
300

 70
     1
 71
     1
  0
GROUP
  5
E06D
102
{ACAD_REACTORS
330
D
102
}
330
D
100
AcDbGroup
300

 70
     1
 71
     1
  0
GROUP
  5
DDE
102
{ACAD_REACTORS
330
D
102
}
330
D
100
AcDbGroup
300

 70
     1
 71
     1
  0
GROUP
  5
208B
102
{ACAD_REACTORS
330
D
102
}
330
D
100
AcDbGroup
300

 70
     1
 71
     1
  0
GROUP
  5
8D68
102
{ACAD_REACTORS
330
D
102
}
330
D
100
AcDbGroup
300

 70
     1
 71
     1
  0
GROUP
  5
962B
102
{ACAD_REACTORS
330
D
102
}
330
D
100
AcDbGroup
300

 70
     1
 71
     1
  0
GROUP
  5
9307
102
{ACAD_REACTORS
330
D
102
}
330
D
100
AcDbGroup
300

 70
     1
 71
     1
  0
GROUP
  5
110D3
102
{ACAD_REACTORS
330
D
102
}
330
D
100
AcDbGroup
300

 70
     1
 71
     1
  0
GROUP
  5
2729
102
{ACAD_REACTORS
330
D
102
}
330
D
100
AcDbGroup
300

 70
     1
 71
     1
  0
GROUP
  5
F9C
102
{ACAD_REACTORS
330
D
102
}
330
D
100
AcDbGroup
300

 70
     1
 71
     1
  0
GROUP
  5
1686
102
{ACAD_REACTORS
330
D
102
}
330
D
100
AcDbGroup
300

 70
     1
 71
     1
  0
GROUP
  5
3B3A
102
{ACAD_REACTORS
330
D
102
}
330
D
100
AcDbGroup
300

 70
     1
 71
     1
  0
GROUP
  5
2084
102
{ACAD_REACTORS
330
D
102
}
330
D
100
AcDbGroup
300

 70
     1
 71
     1
  0
GROUP
  5
D523
102
{ACAD_REACTORS
330
D
102
}
330
D
100
AcDbGroup
300

 70
     1
 71
     1
  0
GROUP
  5
D943
102
{ACAD_REACTORS
330
D
102
}
330
D
100
AcDbGroup
300

 70
     1
 71
     1
  0
GROUP
  5
E06E
102
{ACAD_REACTORS
330
D
102
}
330
D
100
AcDbGroup
300

 70
     1
 71
     1
  0
GROUP
  5
11E4D
102
{ACAD_REACTORS
330
D
102
}
330
D
100
AcDbGroup
300

 70
     1
 71
     1
  0
GROUP
  5
E5AA
102
{ACAD_REACTORS
330
D
102
}
330
D
100
AcDbGroup
300

 70
     1
 71
     1
  0
GROUP
  5
110E7
102
{ACAD_REACTORS
330
D
102
}
330
D
100
AcDbGroup
300

 70
     1
 71
     1
  0
GROUP
  5
2FE9
102
{ACAD_REACTORS
330
D
102
}
330
D
100
AcDbGroup
300

 70
     1
 71
     1
  0
GROUP
  5
2A1C
102
{ACAD_REACTORS
330
D
102
}
330
D
100
AcDbGroup
300

 70
     1
 71
     1
  0
GROUP
  5
38CA
102
{ACAD_REACTORS
330
D
102
}
330
D
100
AcDbGroup
300

 70
     1
 71
     1
  0
GROUP
  5
2E5C
102
{ACAD_REACTORS
330
D
102
}
330
D
100
AcDbGroup
300

 70
     1
 71
     1
  0
GROUP
  5
1291
102
{ACAD_REACTORS
330
D
102
}
330
D
100
AcDbGroup
300

 70
     1
 71
     1
  0
GROUP
  5
9885
102
{ACAD_REACTORS
330
D
102
}
330
D
100
AcDbGroup
300

 70
     1
 71
     1
  0
GROUP
  5
962C
102
{ACAD_REACTORS
330
D
102
}
330
D
100
AcDbGroup
300

 70
     1
 71
     1
  0
GROUP
  5
2D36
102
{ACAD_REACTORS
330
D
102
}
330
D
100
AcDbGroup
300

 70
     1
 71
     1
  0
GROUP
  5
9C6D
102
{ACAD_REACTORS
330
D
102
}
330
D
100
AcDbGroup
300

 70
     1
 71
     1
  0
GROUP
  5
9891
102
{ACAD_REACTORS
330
D
102
}
330
D
100
AcDbGroup
300

 70
     1
 71
     1
  0
GROUP
  5
11E4E
102
{ACAD_REACTORS
330
D
102
}
330
D
100
AcDbGroup
300

 70
     1
 71
     1
  0
GROUP
  5
2F10
102
{ACAD_REACTORS
330
D
102
}
330
D
100
AcDbGroup
300

 70
     1
 71
     1
  0
GROUP
  5
3157
102
{ACAD_REACTORS
330
D
102
}
330
D
100
AcDbGroup
300

 70
     1
 71
     1
  0
GROUP
  5
325D
102
{ACAD_REACTORS
330
D
102
}
330
D
100
AcDbGroup
300

 70
     1
 71
     1
  0
GROUP
  5
3C7D
102
{ACAD_REACTORS
330
D
102
}
330
D
100
AcDbGroup
300

 70
     1
 71
     1
  0
GROUP
  5
12FE
102
{ACAD_REACTORS
330
D
102
}
330
D
100
AcDbGroup
300

 70
     1
 71
     1
  0
GROUP
  5
E6D6
102
{ACAD_REACTORS
330
D
102
}
330
D
100
AcDbGroup
300

 70
     1
 71
     1
  0
GROUP
  5
39E4
102
{ACAD_REACTORS
330
D
102
}
330
D
100
AcDbGroup
300

 70
     1
 71
     1
  0
GROUP
  5
1884
102
{ACAD_REACTORS
330
D
102
}
330
D
100
AcDbGroup
300

 70
     1
 71
     1
  0
GROUP
  5
2744
102
{ACAD_REACTORS
330
D
102
}
330
D
100
AcDbGroup
300

 70
     1
 71
     1
  0
GROUP
  5
3659
102
{ACAD_REACTORS
330
D
102
}
330
D
100
AcDbGroup
300

 70
     1
 71
     1
  0
GROUP
  5
1A98
102
{ACAD_REACTORS
330
D
102
}
330
D
100
AcDbGroup
300

 70
     1
 71
     1
  0
GROUP
  5
10282
102
{ACAD_REACTORS
330
D
102
}
330
D
100
AcDbGroup
300

 70
     1
 71
     1
  0
GROUP
  5
E088
102
{ACAD_REACTORS
330
D
102
}
330
D
100
AcDbGroup
300

 70
     1
 71
     1
  0
GROUP
  5
11E4F
102
{ACAD_REACTORS
330
D
102
}
330
D
100
AcDbGroup
300

 70
     1
 71
     1
  0
GROUP
  5
12B5
102
{ACAD_REACTORS
330
D
102
}
330
D
100
AcDbGroup
300

 70
     1
 71
     1
  0
GROUP
  5
1222
102
{ACAD_REACTORS
330
D
102
}
330
D
100
AcDbGroup
300

 70
     1
 71
     1
  0
GROUP
  5
89BC
102
{ACAD_REACTORS
330
D
102
}
330
D
100
AcDbGroup
300

 70
     1
 71
     1
  0
GROUP
  5
3618
102
{ACAD_REACTORS
330
D
102
}
330
D
100
AcDbGroup
300

 70
     1
 71
     1
  0
GROUP
  5
3B68
102
{ACAD_REACTORS
330
D
102
}
330
D
100
AcDbGroup
300

 70
     1
 71
     1
  0
GROUP
  5
7BC4
102
{ACAD_REACTORS
330
D
102
}
330
D
100
AcDbGroup
300

 70
     1
 71
     1
  0
GROUP
  5
FF59
102
{ACAD_REACTORS
330
D
102
}
330
D
100
AcDbGroup
300

 70
     1
 71
     1
  0
GROUP
  5
8F8A
102
{ACAD_REACTORS
330
D
102
}
330
D
100
AcDbGroup
300

 70
     1
 71
     1
  0
GROUP
  5
2E84
102
{ACAD_REACTORS
330
D
102
}
330
D
100
AcDbGroup
300

 70
     1
 71
     1
  0
GROUP
  5
9308
102
{ACAD_REACTORS
330
D
102
}
330
D
100
AcDbGroup
300

 70
     1
 71
     1
  0
GROUP
  5
3BB6
102
{ACAD_REACTORS
330
D
102
}
330
D
100
AcDbGroup
300

 70
     1
 71
     1
  0
GROUP
  5
18C4
102
{ACAD_REACTORS
330
D
102
}
330
D
100
AcDbGroup
300

 70
     1
 71
     1
  0
GROUP
  5
11E50
102
{ACAD_REACTORS
330
D
102
}
330
D
100
AcDbGroup
300

 70
     1
 71
     1
  0
GROUP
  5
2826
102
{ACAD_REACTORS
330
D
102
}
330
D
100
AcDbGroup
300

 70
     1
 71
     1
  0
GROUP
  5
E548
102
{ACAD_REACTORS
330
D
102
}
330
D
100
AcDbGroup
300

 70
     1
 71
     1
  0
GROUP
  5
1C0B
102
{ACAD_REACTORS
330
D
102
}
330
D
100
AcDbGroup
300

 70
     1
 71
     1
  0
GROUP
  5
1C50
102
{ACAD_REACTORS
330
D
102
}
330
D
100
AcDbGroup
300

 70
     1
 71
     1
  0
GROUP
  5
8D69
102
{ACAD_REACTORS
330
D
102
}
330
D
100
AcDbGroup
300

 70
     1
 71
     1
  0
GROUP
  5
2147
102
{ACAD_REACTORS
330
D
102
}
330
D
100
AcDbGroup
300

 70
     1
 71
     1
  0
GROUP
  5
11DA
102
{ACAD_REACTORS
330
D
102
}
330
D
100
AcDbGroup
300

 70
     1
 71
     1
  0
GROUP
  5
2F1C
102
{ACAD_REACTORS
330
D
102
}
330
D
100
AcDbGroup
300

 70
     1
 71
     1
  0
GROUP
  5
725B
102
{ACAD_REACTORS
330
D
102
}
330
D
100
AcDbGroup
300

 70
     1
 71
     1
  0
GROUP
  5
26A5
102
{ACAD_REACTORS
330
D
102
}
330
D
100
AcDbGroup
300

 70
     1
 71
     1
  0
GROUP
  5
1B2C
102
{ACAD_REACTORS
330
D
102
}
330
D
100
AcDbGroup
300

 70
     1
 71
     1
  0
GROUP
  5
D524
102
{ACAD_REACTORS
330
D
102
}
330
D
100
AcDbGroup
300

 70
     1
 71
     1
  0
GROUP
  5
1001
102
{ACAD_REACTORS
330
D
102
}
330
D
100
AcDbGroup
300

 70
     1
 71
     1
  0
GROUP
  5
11E51
102
{ACAD_REACTORS
330
D
102
}
330
D
100
AcDbGroup
300

 70
     1
 71
     1
  0
GROUP
  5
D79
102
{ACAD_REACTORS
330
D
102
}
330
D
100
AcDbGroup
300

 70
     1
 71
     1
  0
GROUP
  5
125B
102
{ACAD_REACTORS
330
D
102
}
330
D
100
AcDbGroup
300

 70
     1
 71
     1
  0
GROUP
  5
E75D
102
{ACAD_REACTORS
330
D
102
}
330
D
100
AcDbGroup
300

 70
     1
 71
     1
  0
GROUP
  5
3A85
102
{ACAD_REACTORS
330
D
102
}
330
D
100
AcDbGroup
300

 70
     1
 71
     1
  0
GROUP
  5
10280
102
{ACAD_REACTORS
330
D
102
}
330
D
100
AcDbGroup
300

 70
     1
 71
     1
  0
GROUP
  5
9309
102
{ACAD_REACTORS
330
D
102
}
330
D
100
AcDbGroup
300

 70
     1
 71
     1
  0
GROUP
  5
21E4
102
{ACAD_REACTORS
330
D
102
}
330
D
100
AcDbGroup
300

 70
     1
 71
     1
  0
GROUP
  5
2089
102
{ACAD_REACTORS
330
D
102
}
330
D
100
AcDbGroup
300

 70
     1
 71
     1
  0
GROUP
  5
D166
102
{ACAD_REACTORS
330
D
102
}
330
D
100
AcDbGroup
300

 70
     1
 71
     1
  0
GROUP
  5
D525
102
{ACAD_REACTORS
330
D
102
}
330
D
100
AcDbGroup
300

 70
     1
 71
     1
  0
GROUP
  5
487
102
{ACAD_REACTORS
330
D
102
}
330
D
100
AcDbGroup
300

 70
     1
 71
     1
  0
GROUP
  5
2E14
102
{ACAD_REACTORS
330
D
102
}
330
D
100
AcDbGroup
300

 70
     1
 71
     1
  0
GROUP
  5
9892
102
{ACAD_REACTORS
330
D
102
}
330
D
100
AcDbGroup
300

 70
     1
 71
     1
  0
GROUP
  5
11E52
102
{ACAD_REACTORS
330
D
102
}
330
D
100
AcDbGroup
300

 70
     1
 71
     1
  0
GROUP
  5
1B08
102
{ACAD_REACTORS
330
D
102
}
330
D
100
AcDbGroup
300

 70
     1
 71
     1
  0
GROUP
  5
26E2
102
{ACAD_REACTORS
330
D
102
}
330
D
100
AcDbGroup
300

 70
     1
 71
     1
  0
GROUP
  5
8D6A
102
{ACAD_REACTORS
330
D
102
}
330
D
100
AcDbGroup
300

 70
     1
 71
     1
  0
GROUP
  5
E06F
102
{ACAD_REACTORS
330
D
102
}
330
D
100
AcDbGroup
300

 70
     1
 71
     1
  0
GROUP
  5
2083
102
{ACAD_REACTORS
330
D
102
}
330
D
100
AcDbGroup
300

 70
     1
 71
     1
  0
GROUP
  5
962D
102
{ACAD_REACTORS
330
D
102
}
330
D
100
AcDbGroup
300

 70
     1
 71
     1
  0
GROUP
  5
2827
102
{ACAD_REACTORS
330
D
102
}
330
D
100
AcDbGroup
300

 70
     1
 71
     1
  0
GROUP
  5
38E1
102
{ACAD_REACTORS
330
D
102
}
330
D
100
AcDbGroup
300

 70
     1
 71
     1
  0
GROUP
  5
26A4
102
{ACAD_REACTORS
330
D
102
}
330
D
100
AcDbGroup
300

 70
     1
 71
     1
  0
GROUP
  5
26E5
102
{ACAD_REACTORS
330
D
102
}
330
D
100
AcDbGroup
300

 70
     1
 71
     1
  0
GROUP
  5
271E
102
{ACAD_REACTORS
330
D
102
}
330
D
100
AcDbGroup
300

 70
     1
 71
     1
  0
GROUP
  5
8F5C
102
{ACAD_REACTORS
330
D
102
}
330
D
100
AcDbGroup
300

 70
     1
 71
     1
  0
GROUP
  5
11E53
102
{ACAD_REACTORS
330
D
102
}
330
D
100
AcDbGroup
300

 70
     1
 71
     1
  0
GROUP
  5
70E2
102
{ACAD_REACTORS
330
D
102
}
330
D
100
AcDbGroup
300

 70
     1
 71
     1
  0
GROUP
  5
1CC2
102
{ACAD_REACTORS
330
D
102
}
330
D
100
AcDbGroup
300

 70
     1
 71
     1
  0
GROUP
  5
4B1
102
{ACAD_REACTORS
330
D
102
}
330
D
100
AcDbGroup
300

 70
     1
 71
     1
  0
GROUP
  5
89B2
102
{ACAD_REACTORS
330
D
102
}
330
D
100
AcDbGroup
300

 70
     1
 71
     1
  0
GROUP
  5
D526
102
{ACAD_REACTORS
330
D
102
}
330
D
100
AcDbGroup
300

 70
     1
 71
     1
  0
GROUP
  5
D83
102
{ACAD_REACTORS
330
D
102
}
330
D
100
AcDbGroup
300

 70
     1
 71
     1
  0
GROUP
  5
88E
102
{ACAD_REACTORS
330
D
102
}
330
D
100
AcDbGroup
300

 70
     1
 71
     1
  0
GROUP
  5
1B6D
102
{ACAD_REACTORS
330
D
102
}
330
D
100
AcDbGroup
300

 70
     1
 71
     1
  0
GROUP
  5
471
102
{ACAD_REACTORS
330
D
102
}
330
D
100
AcDbGroup
300

 70
     1
 71
     1
  0
GROUP
  5
2727
102
{ACAD_REACTORS
330
D
102
}
330
D
100
AcDbGroup
300

 70
     1
 71
     1
  0
GROUP
  5
962E
102
{ACAD_REACTORS
330
D
102
}
330
D
100
AcDbGroup
300

 70
     1
 71
     1
  0
GROUP
  5
207F
102
{ACAD_REACTORS
330
D
102
}
330
D
100
AcDbGroup
300

 70
     1
 71
     1
  0
GROUP
  5
11E54
102
{ACAD_REACTORS
330
D
102
}
330
D
100
AcDbGroup
300

 70
     1
 71
     1
  0
GROUP
  5
20F6
102
{ACAD_REACTORS
330
D
102
}
330
D
100
AcDbGroup
300

 70
     1
 71
     1
  0
GROUP
  5
3697
102
{ACAD_REACTORS
330
D
102
}
330
D
100
AcDbGroup
300

 70
     1
 71
     1
  0
GROUP
  5
3648
102
{ACAD_REACTORS
330
D
102
}
330
D
100
AcDbGroup
300

 70
     1
 71
     1
  0
GROUP
  5
2088
102
{ACAD_REACTORS
330
D
102
}
330
D
100
AcDbGroup
300

 70
     1
 71
     1
  0
GROUP
  5
114F
102
{ACAD_REACTORS
330
D
102
}
330
D
100
AcDbGroup
300

 70
     1
 71
     1
  0
GROUP
  5
27FE
102
{ACAD_REACTORS
330
D
102
}
330
D
100
AcDbGroup
300

 70
     1
 71
     1
  0
GROUP
  5
207E
102
{ACAD_REACTORS
330
D
102
}
330
D
100
AcDbGroup
300

 70
     1
 71
     1
  0
GROUP
  5
2E6F
102
{ACAD_REACTORS
330
D
102
}
330
D
100
AcDbGroup
300

 70
     1
 71
     1
  0
GROUP
  5
3381
102
{ACAD_REACTORS
330
D
102
}
330
D
100
AcDbGroup
300

 70
     1
 71
     1
  0
GROUP
  5
2E74
102
{ACAD_REACTORS
330
D
102
}
330
D
100
AcDbGroup
300

 70
     1
 71
     1
  0
GROUP
  5
930A
102
{ACAD_REACTORS
330
D
102
}
330
D
100
AcDbGroup
300

 70
     1
 71
     1
  0
GROUP
  5
3BC1
102
{ACAD_REACTORS
330
D
102
}
330
D
100
AcDbGroup
300

 70
     1
 71
     1
  0
GROUP
  5
1027
102
{ACAD_REACTORS
330
D
102
}
330
D
100
AcDbGroup
300

 70
     1
 71
     1
  0
GROUP
  5
FA0A
102
{ACAD_REACTORS
330
D
102
}
330
D
100
AcDbGroup
300

 70
     1
 71
     1
  0
GROUP
  5
365E
102
{ACAD_REACTORS
330
D
102
}
330
D
100
AcDbGroup
300

 70
     1
 71
     1
  0
GROUP
  5
16C3
102
{ACAD_REACTORS
330
D
102
}
330
D
100
AcDbGroup
300

 70
     1
 71
     1
  0
GROUP
  5
2F33
102
{ACAD_REACTORS
330
D
102
}
330
D
100
AcDbGroup
300

 70
     1
 71
     1
  0
GROUP
  5
110CC
102
{ACAD_REACTORS
330
D
102
}
330
D
100
AcDbGroup
300

 70
     1
 71
     1
  0
GROUP
  5
1234
102
{ACAD_REACTORS
330
D
102
}
330
D
100
AcDbGroup
300

 70
     1
 71
     1
  0
GROUP
  5
27AF
102
{ACAD_REACTORS
330
D
102
}
330
D
100
AcDbGroup
300

 70
     1
 71
     1
  0
GROUP
  5
B6A1
102
{ACAD_REACTORS
330
D
102
}
330
D
100
AcDbGroup
300

 70
     1
 71
     1
  0
GROUP
  5
376
102
{ACAD_REACTORS
330
D
102
}
330
D
100
AcDbGroup
300

 70
     1
 71
     1
  0
GROUP
  5
397D
102
{ACAD_REACTORS
330
D
102
}
330
D
100
AcDbGroup
300

 70
     1
 71
     1
  0
GROUP
  5
B6A2
102
{ACAD_REACTORS
330
D
102
}
330
D
100
AcDbGroup
300

 70
     1
 71
     1
  0
GROUP
  5
D527
102
{ACAD_REACTORS
330
D
102
}
330
D
100
AcDbGroup
300

 70
     1
 71
     1
  0
GROUP
  5
B6A3
102
{ACAD_REACTORS
330
D
102
}
330
D
100
AcDbGroup
300

 70
     1
 71
     1
  0
GROUP
  5
D944
102
{ACAD_REACTORS
330
D
102
}
330
D
100
AcDbGroup
300

 70
     1
 71
     1
  0
GROUP
  5
E070
102
{ACAD_REACTORS
330
D
102
}
330
D
100
AcDbGroup
300

 70
     1
 71
     1
  0
GROUP
  5
11F4A
102
{ACAD_REACTORS
330
D
102
}
330
D
100
AcDbGroup
300

 70
     1
 71
     1
  0
GROUP
  5
9893
102
{ACAD_REACTORS
330
D
102
}
330
D
100
AcDbGroup
300

 70
     1
 71
     1
  0
GROUP
  5
B6A4
102
{ACAD_REACTORS
330
D
102
}
330
D
100
AcDbGroup
300

 70
     1
 71
     1
  0
GROUP
  5
B6A5
102
{ACAD_REACTORS
330
D
102
}
330
D
100
AcDbGroup
300

 70
     1
 71
     1
  0
GROUP
  5
32C8
102
{ACAD_REACTORS
330
D
102
}
330
D
100
AcDbGroup
300

 70
     1
 71
     1
  0
GROUP
  5
3B45
102
{ACAD_REACTORS
330
D
102
}
330
D
100
AcDbGroup
300

 70
     1
 71
     1
  0
GROUP
  5
7BC5
102
{ACAD_REACTORS
330
D
102
}
330
D
100
AcDbGroup
300

 70
     1
 71
     1
  0
GROUP
  5
9A9A
102
{ACAD_REACTORS
330
D
102
}
330
D
100
AcDbGroup
300

 70
     1
 71
     1
  0
GROUP
  5
B6A6
102
{ACAD_REACTORS
330
D
102
}
330
D
100
AcDbGroup
300

 70
     1
 71
     1
  0
GROUP
  5
89AC
102
{ACAD_REACTORS
330
D
102
}
330
D
100
AcDbGroup
300

 70
     1
 71
     1
  0
GROUP
  5
2FFF
102
{ACAD_REACTORS
330
D
102
}
330
D
100
AcDbGroup
300

 70
     1
 71
     1
  0
GROUP
  5
E071
102
{ACAD_REACTORS
330
D
102
}
330
D
100
AcDbGroup
300

 70
     1
 71
     1
  0
GROUP
  5
E04
102
{ACAD_REACTORS
330
D
102
}
330
D
100
AcDbGroup
300

 70
     1
 71
     1
  0
GROUP
  5
11F4B
102
{ACAD_REACTORS
330
D
102
}
330
D
100
AcDbGroup
300

 70
     1
 71
     1
  0
GROUP
  5
B6A7
102
{ACAD_REACTORS
330
D
102
}
330
D
100
AcDbGroup
300

 70
     1
 71
     1
  0
GROUP
  5
39B3
102
{ACAD_REACTORS
330
D
102
}
330
D
100
AcDbGroup
300

 70
     1
 71
     1
  0
GROUP
  5
B6A8
102
{ACAD_REACTORS
330
D
102
}
330
D
100
AcDbGroup
300

 70
     1
 71
     1
  0
GROUP
  5
FF54
102
{ACAD_REACTORS
330
D
102
}
330
D
100
AcDbGroup
300

 70
     1
 71
     1
  0
GROUP
  5
D528
102
{ACAD_REACTORS
330
D
102
}
330
D
100
AcDbGroup
300

 70
     1
 71
     1
  0
GROUP
  5
89AE
102
{ACAD_REACTORS
330
D
102
}
330
D
100
AcDbGroup
300

 70
     1
 71
     1
  0
GROUP
  5
39BD
102
{ACAD_REACTORS
330
D
102
}
330
D
100
AcDbGroup
300

 70
     1
 71
     1
  0
GROUP
  5
B6A9
102
{ACAD_REACTORS
330
D
102
}
330
D
100
AcDbGroup
300

 70
     1
 71
     1
  0
GROUP
  5
B6AA
102
{ACAD_REACTORS
330
D
102
}
330
D
100
AcDbGroup
300

 70
     1
 71
     1
  0
GROUP
  5
E081
102
{ACAD_REACTORS
330
D
102
}
330
D
100
AcDbGroup
300

 70
     1
 71
     1
  0
GROUP
  5
83F7
102
{ACAD_REACTORS
330
D
102
}
330
D
100
AcDbGroup
300

 70
     1
 71
     1
  0
GROUP
  5
B6B8
102
{ACAD_REACTORS
330
D
102
}
330
D
100
AcDbGroup
300

 70
     1
 71
     1
  0
GROUP
  5
1200F
102
{ACAD_REACTORS
330
D
102
}
330
D
100
AcDbGroup
300

 70
     1
 71
     1
  0
GROUP
  5
B6C6
102
{ACAD_REACTORS
330
D
102
}
330
D
100
AcDbGroup
300

 70
     1
 71
     1
  0
GROUP
  5
176A
102
{ACAD_REACTORS
330
D
102
}
330
D
100
AcDbGroup
300

 70
     1
 71
     1
  0
GROUP
  5
D5A0
102
{ACAD_REACTORS
330
D
102
}
330
D
100
AcDbGroup
300

 70
     1
 71
     1
  0
GROUP
  5
2FDE
102
{ACAD_REACTORS
330
D
102
}
330
D
100
AcDbGroup
300

 70
     1
 71
     1
  0
GROUP
  5
B6CC
102
{ACAD_REACTORS
330
D
102
}
330
D
100
AcDbGroup
300

 70
     1
 71
     1
  0
GROUP
  5
322E
102
{ACAD_REACTORS
330
D
102
}
330
D
100
AcDbGroup
300

 70
     1
 71
     1
  0
GROUP
  5
82B7
102
{ACAD_REACTORS
330
D
102
}
330
D
100
AcDbGroup
300

 70
     1
 71
     1
  0
GROUP
  5
1192
102
{ACAD_REACTORS
330
D
102
}
330
D
100
AcDbGroup
300

 70
     1
 71
     1
  0
GROUP
  5
7147
102
{ACAD_REACTORS
330
D
102
}
330
D
100
AcDbGroup
300

 70
     1
 71
     1
  0
GROUP
  5
9894
102
{ACAD_REACTORS
330
D
102
}
330
D
100
AcDbGroup
300

 70
     1
 71
     1
  0
GROUP
  5
B6D4
102
{ACAD_REACTORS
330
D
102
}
330
D
100
AcDbGroup
300

 70
     1
 71
     1
  0
GROUP
  5
CB4
102
{ACAD_REACTORS
330
D
102
}
330
D
100
AcDbGroup
300

 70
     1
 71
     1
  0
GROUP
  5
E089
102
{ACAD_REACTORS
330
D
102
}
330
D
100
AcDbGroup
300

 70
     1
 71
     1
  0
GROUP
  5
FA0C
102
{ACAD_REACTORS
330
D
102
}
330
D
100
AcDbGroup
300

 70
     1
 71
     1
  0
GROUP
  5
1202C
102
{ACAD_REACTORS
330
D
102
}
330
D
100
AcDbGroup
300

 70
     1
 71
     1
  0
GROUP
  5
1C44
102
{ACAD_REACTORS
330
D
102
}
330
D
100
AcDbGroup
300

 70
     1
 71
     1
  0
GROUP
  5
2E69
102
{ACAD_REACTORS
330
D
102
}
330
D
100
AcDbGroup
300

 70
     1
 71
     1
  0
GROUP
  5
B711
102
{ACAD_REACTORS
330
D
102
}
330
D
100
AcDbGroup
300

 70
     1
 71
     1
  0
GROUP
  5
E63E
102
{ACAD_REACTORS
330
D
102
}
330
D
100
AcDbGroup
300

 70
     1
 71
     1
  0
GROUP
  5
3080
102
{ACAD_REACTORS
330
D
102
}
330
D
100
AcDbGroup
300

 70
     1
 71
     1
  0
GROUP
  5
E082
102
{ACAD_REACTORS
330
D
102
}
330
D
100
AcDbGroup
300

 70
     1
 71
     1
  0
GROUP
  5
3BC2
102
{ACAD_REACTORS
330
D
102
}
330
D
100
AcDbGroup
300

 70
     1
 71
     1
  0
GROUP
  5
3725
102
{ACAD_REACTORS
330
D
102
}
330
D
100
AcDbGroup
300

 70
     1
 71
     1
  0
GROUP
  5
3088
102
{ACAD_REACTORS
330
D
102
}
330
D
100
AcDbGroup
300

 70
     1
 71
     1
  0
GROUP
  5
9C6A
102
{ACAD_REACTORS
330
D
102
}
330
D
100
AcDbGroup
300

 70
     1
 71
     1
  0
GROUP
  5
D5AF
102
{ACAD_REACTORS
330
D
102
}
330
D
100
AcDbGroup
300

 70
     1
 71
     1
  0
GROUP
  5
930B
102
{ACAD_REACTORS
330
D
102
}
330
D
100
AcDbGroup
300

 70
     1
 71
     1
  0
GROUP
  5
2183
102
{ACAD_REACTORS
330
D
102
}
330
D
100
AcDbGroup
300

 70
     1
 71
     1
  0
GROUP
  5
122C4
102
{ACAD_REACTORS
330
D
102
}
330
D
100
AcDbGroup
300

 70
     1
 71
     1
  0
GROUP
  5
26E6
102
{ACAD_REACTORS
330
D
102
}
330
D
100
AcDbGroup
300

 70
     1
 71
     1
  0
GROUP
  5
F31
102
{ACAD_REACTORS
330
D
102
}
330
D
100
AcDbGroup
300

 70
     1
 71
     1
  0
GROUP
  5
207D
102
{ACAD_REACTORS
330
D
102
}
330
D
100
AcDbGroup
300

 70
     1
 71
     1
  0
GROUP
  5
26D3
102
{ACAD_REACTORS
330
D
102
}
330
D
100
AcDbGroup
300

 70
     1
 71
     1
  0
GROUP
  5
E083
102
{ACAD_REACTORS
330
D
102
}
330
D
100
AcDbGroup
300

 70
     1
 71
     1
  0
GROUP
  5
2E09
102
{ACAD_REACTORS
330
D
102
}
330
D
100
AcDbGroup
300

 70
     1
 71
     1
  0
GROUP
  5
1092
102
{ACAD_REACTORS
330
D
102
}
330
D
100
AcDbGroup
300

 70
     1
 71
     1
  0
GROUP
  5
D5B1
102
{ACAD_REACTORS
330
D
102
}
330
D
100
AcDbGroup
300

 70
     1
 71
     1
  0
GROUP
  5
21AF
102
{ACAD_REACTORS
330
D
102
}
330
D
100
AcDbGroup
300

 70
     1
 71
     1
  0
GROUP
  5
8D6C
102
{ACAD_REACTORS
330
D
102
}
330
D
100
AcDbGroup
300

 70
     1
 71
     1
  0
GROUP
  5
15EF
102
{ACAD_REACTORS
330
D
102
}
330
D
100
AcDbGroup
300

 70
     1
 71
     1
  0
GROUP
  5
3BC9
102
{ACAD_REACTORS
330
D
102
}
330
D
100
AcDbGroup
300

 70
     1
 71
     1
  0
GROUP
  5
122C5
102
{ACAD_REACTORS
330
D
102
}
330
D
100
AcDbGroup
300

 70
     1
 71
     1
  0
GROUP
  5
38F6
102
{ACAD_REACTORS
330
D
102
}
330
D
100
AcDbGroup
300

 70
     1
 71
     1
  0
GROUP
  5
2086
102
{ACAD_REACTORS
330
D
102
}
330
D
100
AcDbGroup
300

 70
     1
 71
     1
  0
GROUP
  5
74EF
102
{ACAD_REACTORS
330
D
102
}
330
D
100
AcDbGroup
300

 70
     1
 71
     1
  0
GROUP
  5
E084
102
{ACAD_REACTORS
330
D
102
}
330
D
100
AcDbGroup
300

 70
     1
 71
     1
  0
GROUP
  5
7E9F
102
{ACAD_REACTORS
330
D
102
}
330
D
100
AcDbGroup
300

 70
     1
 71
     1
  0
GROUP
  5
2173
102
{ACAD_REACTORS
330
D
102
}
330
D
100
AcDbGroup
300

 70
     1
 71
     1
  0
GROUP
  5
2DA9
102
{ACAD_REACTORS
330
D
102
}
330
D
100
AcDbGroup
300

 70
     1
 71
     1
  0
GROUP
  5
328F
102
{ACAD_REACTORS
330
D
102
}
330
D
100
AcDbGroup
300

 70
     1
 71
     1
  0
GROUP
  5
215E
102
{ACAD_REACTORS
330
D
102
}
330
D
100
AcDbGroup
300

 70
     1
 71
     1
  0
GROUP
  5
3C4B
102
{ACAD_REACTORS
330
D
102
}
330
D
100
AcDbGroup
300

 70
     1
 71
     1
  0
GROUP
  5
C6B
102
{ACAD_REACTORS
330
D
102
}
330
D
100
AcDbGroup
300

 70
     1
 71
     1
  0
GROUP
  5
110E8
102
{ACAD_REACTORS
330
D
102
}
330
D
100
AcDbGroup
300

 70
     1
 71
     1
  0
GROUP
  5
122C6
102
{ACAD_REACTORS
330
D
102
}
330
D
100
AcDbGroup
300

 70
     1
 71
     1
  0
GROUP
  5
1127
102
{ACAD_REACTORS
330
D
102
}
330
D
100
AcDbGroup
300

 70
     1
 71
     1
  0
GROUP
  5
2720
102
{ACAD_REACTORS
330
D
102
}
330
D
100
AcDbGroup
300

 70
     1
 71
     1
  0
GROUP
  5
E085
102
{ACAD_REACTORS
330
D
102
}
330
D
100
AcDbGroup
300

 70
     1
 71
     1
  0
GROUP
  5
D5B2
102
{ACAD_REACTORS
330
D
102
}
330
D
100
AcDbGroup
300

 70
     1
 71
     1
  0
GROUP
  5
3935
102
{ACAD_REACTORS
330
D
102
}
330
D
100
AcDbGroup
300

 70
     1
 71
     1
  0
GROUP
  5
10283
102
{ACAD_REACTORS
330
D
102
}
330
D
100
AcDbGroup
300

 70
     1
 71
     1
  0
GROUP
  5
3746
102
{ACAD_REACTORS
330
D
102
}
330
D
100
AcDbGroup
300

 70
     1
 71
     1
  0
GROUP
  5
3962
102
{ACAD_REACTORS
330
D
102
}
330
D
100
AcDbGroup
300

 70
     1
 71
     1
  0
GROUP
  5
1C86
102
{ACAD_REACTORS
330
D
102
}
330
D
100
AcDbGroup
300

 70
     1
 71
     1
  0
GROUP
  5
8D6D
102
{ACAD_REACTORS
330
D
102
}
330
D
100
AcDbGroup
300

 70
     1
 71
     1
  0
GROUP
  5
39BE
102
{ACAD_REACTORS
330
D
102
}
330
D
100
AcDbGroup
300

 70
     1
 71
     1
  0
GROUP
  5
2FA9
102
{ACAD_REACTORS
330
D
102
}
330
D
100
AcDbGroup
300

 70
     1
 71
     1
  0
GROUP
  5
122C7
102
{ACAD_REACTORS
330
D
102
}
330
D
100
AcDbGroup
300

 70
     1
 71
     1
  0
GROUP
  5
D6F
102
{ACAD_REACTORS
330
D
102
}
330
D
100
AcDbGroup
300

 70
     1
 71
     1
  0
GROUP
  5
9C6C
102
{ACAD_REACTORS
330
D
102
}
330
D
100
AcDbGroup
300

 70
     1
 71
     1
  0
GROUP
  5
308E
102
{ACAD_REACTORS
330
D
102
}
330
D
100
AcDbGroup
300

 70
     1
 71
     1
  0
GROUP
  5
FF5A
102
{ACAD_REACTORS
330
D
102
}
330
D
100
AcDbGroup
300

 70
     1
 71
     1
  0
GROUP
  5
3BF2
102
{ACAD_REACTORS
330
D
102
}
330
D
100
AcDbGroup
300

 70
     1
 71
     1
  0
GROUP
  5
930E
102
{ACAD_REACTORS
330
D
102
}
330
D
100
AcDbGroup
300

 70
     1
 71
     1
  0
GROUP
  5
1687
102
{ACAD_REACTORS
330
D
102
}
330
D
100
AcDbGroup
300

 70
     1
 71
     1
  0
GROUP
  5
3C27
102
{ACAD_REACTORS
330
D
102
}
330
D
100
AcDbGroup
300

 70
     1
 71
     1
  0
GROUP
  5
7EA0
102
{ACAD_REACTORS
330
D
102
}
330
D
100
AcDbGroup
300

 70
     1
 71
     1
  0
GROUP
  5
3A57
102
{ACAD_REACTORS
330
D
102
}
330
D
100
AcDbGroup
300

 70
     1
 71
     1
  0
GROUP
  5
CB2
102
{ACAD_REACTORS
330
D
102
}
330
D
100
AcDbGroup
300

 70
     1
 71
     1
  0
GROUP
  5
1B1A
102
{ACAD_REACTORS
330
D
102
}
330
D
100
AcDbGroup
300

 70
     1
 71
     1
  0
GROUP
  5
1902
102
{ACAD_REACTORS
330
D
102
}
330
D
100
AcDbGroup
300

 70
     1
 71
     1
  0
GROUP
  5
122C8
102
{ACAD_REACTORS
330
D
102
}
330
D
100
AcDbGroup
300

 70
     1
 71
     1
  0
GROUP
  5
988B
102
{ACAD_REACTORS
330
D
102
}
330
D
100
AcDbGroup
300

 70
     1
 71
     1
  0
GROUP
  5
2F94
102
{ACAD_REACTORS
330
D
102
}
330
D
100
AcDbGroup
300

 70
     1
 71
     1
  0
GROUP
  5
521
102
{ACAD_REACTORS
330
D
102
}
330
D
100
AcDbGroup
300

 70
     1
 71
     1
  0
GROUP
  5
9A90
102
{ACAD_REACTORS
330
D
102
}
330
D
100
AcDbGroup
300

 70
     1
 71
     1
  0
GROUP
  5
127F
102
{ACAD_REACTORS
330
D
102
}
330
D
100
AcDbGroup
300

 70
     1
 71
     1
  0
GROUP
  5
11B6
102
{ACAD_REACTORS
330
D
102
}
330
D
100
AcDbGroup
300

 70
     1
 71
     1
  0
GROUP
  5
2DBD
102
{ACAD_REACTORS
330
D
102
}
330
D
100
AcDbGroup
300

 70
     1
 71
     1
  0
GROUP
  5
9641
102
{ACAD_REACTORS
330
D
102
}
330
D
100
AcDbGroup
300

 70
     1
 71
     1
  0
GROUP
  5
3CFA
102
{ACAD_REACTORS
330
D
102
}
330
D
100
AcDbGroup
300

 70
     1
 71
     1
  0
GROUP
  5
3C4C
102
{ACAD_REACTORS
330
D
102
}
330
D
100
AcDbGroup
300

 70
     1
 71
     1
  0
GROUP
  5
1BC6
102
{ACAD_REACTORS
330
D
102
}
330
D
100
AcDbGroup
300

 70
     1
 71
     1
  0
GROUP
  5
31DE
102
{ACAD_REACTORS
330
D
102
}
330
D
100
AcDbGroup
300

 70
     1
 71
     1
  0
GROUP
  5
D945
102
{ACAD_REACTORS
330
D
102
}
330
D
100
AcDbGroup
300

 70
     1
 71
     1
  0
GROUP
  5
E086
102
{ACAD_REACTORS
330
D
102
}
330
D
100
AcDbGroup
300

 70
     1
 71
     1
  0
GROUP
  5
122C9
102
{ACAD_REACTORS
330
D
102
}
330
D
100
AcDbGroup
300

 70
     1
 71
     1
  0
GROUP
  5
1139
102
{ACAD_REACTORS
330
D
102
}
330
D
100
AcDbGroup
300

 70
     1
 71
     1
  0
GROUP
  5
30B8
102
{ACAD_REACTORS
330
D
102
}
330
D
100
AcDbGroup
300

 70
     1
 71
     1
  0
GROUP
  5
B77A
102
{ACAD_REACTORS
330
D
102
}
330
D
100
AcDbGroup
300

 70
     1
 71
     1
  0
GROUP
  5
BA49
102
{ACAD_REACTORS
330
D
102
}
330
D
100
AcDbGroup
300

 70
     1
 71
     1
  0
GROUP
  5
BA4A
102
{ACAD_REACTORS
330
D
102
}
330
D
100
AcDbGroup
300

 70
     1
 71
     1
  0
GROUP
  5
356E
102
{ACAD_REACTORS
330
D
102
}
330
D
100
AcDbGroup
300

 70
     1
 71
     1
  0
GROUP
  5
1424
102
{ACAD_REACTORS
330
D
102
}
330
D
100
AcDbGroup
300

 70
     1
 71
     1
  0
GROUP
  5
27B1
102
{ACAD_REACTORS
330
D
102
}
330
D
100
AcDbGroup
300

 70
     1
 71
     1
  0
GROUP
  5
9A91
102
{ACAD_REACTORS
330
D
102
}
330
D
100
AcDbGroup
300

 70
     1
 71
     1
  0
GROUP
  5
7EA1
102
{ACAD_REACTORS
330
D
102
}
330
D
100
AcDbGroup
300

 70
     1
 71
     1
  0
GROUP
  5
E087
102
{ACAD_REACTORS
330
D
102
}
330
D
100
AcDbGroup
300

 70
     1
 71
     1
  0
GROUP
  5
BA4B
102
{ACAD_REACTORS
330
D
102
}
330
D
100
AcDbGroup
300

 70
     1
 71
     1
  0
GROUP
  5
44C
102
{ACAD_REACTORS
330
D
102
}
330
D
100
AcDbGroup
300

 70
     1
 71
     1
  0
GROUP
  5
9643
102
{ACAD_REACTORS
330
D
102
}
330
D
100
AcDbGroup
300

 70
     1
 71
     1
  0
GROUP
  5
BA4C
102
{ACAD_REACTORS
330
D
102
}
330
D
100
AcDbGroup
300

 70
     1
 71
     1
  0
GROUP
  5
BA4D
102
{ACAD_REACTORS
330
D
102
}
330
D
100
AcDbGroup
300

 70
     1
 71
     1
  0
GROUP
  5
D915
102
{ACAD_REACTORS
330
D
102
}
330
D
100
AcDbGroup
300

 70
     1
 71
     1
  0
GROUP
  5
D25
102
{ACAD_REACTORS
330
D
102
}
330
D
100
AcDbGroup
300

 70
     1
 71
     1
  0
GROUP
  5
397B
102
{ACAD_REACTORS
330
D
102
}
330
D
100
AcDbGroup
300

 70
     1
 71
     1
  0
GROUP
  5
BA4E
102
{ACAD_REACTORS
330
D
102
}
330
D
100
AcDbGroup
300

 70
     1
 71
     1
  0
GROUP
  5
BA4F
102
{ACAD_REACTORS
330
D
102
}
330
D
100
AcDbGroup
300

 70
     1
 71
     1
  0
GROUP
  5
2693
102
{ACAD_REACTORS
330
D
102
}
330
D
100
AcDbGroup
300

 70
     1
 71
     1
  0
GROUP
  5
9A9C
102
{ACAD_REACTORS
330
D
102
}
330
D
100
AcDbGroup
300

 70
     1
 71
     1
  0
GROUP
  5
D6C
102
{ACAD_REACTORS
330
D
102
}
330
D
100
AcDbGroup
300

 70
     1
 71
     1
  0
GROUP
  5
8D6E
102
{ACAD_REACTORS
330
D
102
}
330
D
100
AcDbGroup
300

 70
     1
 71
     1
  0
GROUP
  5
122CA
102
{ACAD_REACTORS
330
D
102
}
330
D
100
AcDbGroup
300

 70
     1
 71
     1
  0
GROUP
  5
9A92
102
{ACAD_REACTORS
330
D
102
}
330
D
100
AcDbGroup
300

 70
     1
 71
     1
  0
GROUP
  5
D924
102
{ACAD_REACTORS
330
D
102
}
330
D
100
AcDbGroup
300

 70
     1
 71
     1
  0
GROUP
  5
BA50
102
{ACAD_REACTORS
330
D
102
}
330
D
100
AcDbGroup
300

 70
     1
 71
     1
  0
GROUP
  5
BA51
102
{ACAD_REACTORS
330
D
102
}
330
D
100
AcDbGroup
300

 70
     1
 71
     1
  0
GROUP
  5
BAA6
102
{ACAD_REACTORS
330
D
102
}
330
D
100
AcDbGroup
300

 70
     1
 71
     1
  0
GROUP
  5
2824
102
{ACAD_REACTORS
330
D
102
}
330
D
100
AcDbGroup
300

 70
     1
 71
     1
  0
GROUP
  5
BAC5
102
{ACAD_REACTORS
330
D
102
}
330
D
100
AcDbGroup
300

 70
     1
 71
     1
  0
GROUP
  5
BAD3
102
{ACAD_REACTORS
330
D
102
}
330
D
100
AcDbGroup
300

 70
     1
 71
     1
  0
GROUP
  5
2772
102
{ACAD_REACTORS
330
D
102
}
330
D
100
AcDbGroup
300

 70
     1
 71
     1
  0
GROUP
  5
1DB9
102
{ACAD_REACTORS
330
D
102
}
330
D
100
AcDbGroup
300

 70
     1
 71
     1
  0
GROUP
  5
4C2
102
{ACAD_REACTORS
330
D
102
}
330
D
100
AcDbGroup
300

 70
     1
 71
     1
  0
GROUP
  5
BB4F
102
{ACAD_REACTORS
330
D
102
}
330
D
100
AcDbGroup
300

 70
     1
 71
     1
  0
GROUP
  5
D167
102
{ACAD_REACTORS
330
D
102
}
330
D
100
AcDbGroup
300

 70
     1
 71
     1
  0
GROUP
  5
36B7
102
{ACAD_REACTORS
330
D
102
}
330
D
100
AcDbGroup
300

 70
     1
 71
     1
  0
GROUP
  5
122CB
102
{ACAD_REACTORS
330
D
102
}
330
D
100
AcDbGroup
300

 70
     1
 71
     1
  0
GROUP
  5
2D31
102
{ACAD_REACTORS
330
D
102
}
330
D
100
AcDbGroup
300

 70
     1
 71
     1
  0
GROUP
  5
32E7
102
{ACAD_REACTORS
330
D
102
}
330
D
100
AcDbGroup
300

 70
     1
 71
     1
  0
GROUP
  5
3653
102
{ACAD_REACTORS
330
D
102
}
330
D
100
AcDbGroup
300

 70
     1
 71
     1
  0
GROUP
  5
16FA
102
{ACAD_REACTORS
330
D
102
}
330
D
100
AcDbGroup
300

 70
     1
 71
     1
  0
GROUP
  5
BB5F
102
{ACAD_REACTORS
330
D
102
}
330
D
100
AcDbGroup
300

 70
     1
 71
     1
  0
GROUP
  5
BC4E
102
{ACAD_REACTORS
330
D
102
}
330
D
100
AcDbGroup
300

 70
     1
 71
     1
  0
GROUP
  5
83F4
102
{ACAD_REACTORS
330
D
102
}
330
D
100
AcDbGroup
300

 70
     1
 71
     1
  0
GROUP
  5
BC4F
102
{ACAD_REACTORS
330
D
102
}
330
D
100
AcDbGroup
300

 70
     1
 71
     1
  0
GROUP
  5
8DF8
102
{ACAD_REACTORS
330
D
102
}
330
D
100
AcDbGroup
300

 70
     1
 71
     1
  0
GROUP
  5
D934
102
{ACAD_REACTORS
330
D
102
}
330
D
100
AcDbGroup
300

 70
     1
 71
     1
  0
GROUP
  5
FE9
102
{ACAD_REACTORS
330
D
102
}
330
D
100
AcDbGroup
300

 70
     1
 71
     1
  0
GROUP
  5
442
102
{ACAD_REACTORS
330
D
102
}
330
D
100
AcDbGroup
300

 70
     1
 71
     1
  0
GROUP
  5
E08A
102
{ACAD_REACTORS
330
D
102
}
330
D
100
AcDbGroup
300

 70
     1
 71
     1
  0
GROUP
  5
122CC
102
{ACAD_REACTORS
330
D
102
}
330
D
100
AcDbGroup
300

 70
     1
 71
     1
  0
GROUP
  5
BF33
102
{ACAD_REACTORS
330
D
102
}
330
D
100
AcDbGroup
300

 70
     1
 71
     1
  0
GROUP
  5
BF34
102
{ACAD_REACTORS
330
D
102
}
330
D
100
AcDbGroup
300

 70
     1
 71
     1
  0
GROUP
  5
1B47
102
{ACAD_REACTORS
330
D
102
}
330
D
100
AcDbGroup
300

 70
     1
 71
     1
  0
GROUP
  5
BF35
102
{ACAD_REACTORS
330
D
102
}
330
D
100
AcDbGroup
300

 70
     1
 71
     1
  0
GROUP
  5
125E0
102
{ACAD_REACTORS
330
D
102
}
330
D
100
AcDbGroup
300

 70
     1
 71
     1
  0
GROUP
  5
BF36
102
{ACAD_REACTORS
330
D
102
}
330
D
100
AcDbGroup
300

 70
     1
 71
     1
  0
GROUP
  5
FF57
102
{ACAD_REACTORS
330
D
102
}
330
D
100
AcDbGroup
300

 70
     1
 71
     1
  0
GROUP
  5
BF37
102
{ACAD_REACTORS
330
D
102
}
330
D
100
AcDbGroup
300

 70
     1
 71
     1
  0
GROUP
  5
9A93
102
{ACAD_REACTORS
330
D
102
}
330
D
100
AcDbGroup
300

 70
     1
 71
     1
  0
GROUP
  5
8F5D
102
{ACAD_REACTORS
330
D
102
}
330
D
100
AcDbGroup
300

 70
     1
 71
     1
  0
GROUP
  5
930F
102
{ACAD_REACTORS
330
D
102
}
330
D
100
AcDbGroup
300

 70
     1
 71
     1
  0
GROUP
  5
BF38
102
{ACAD_REACTORS
330
D
102
}
330
D
100
AcDbGroup
300

 70
     1
 71
     1
  0
GROUP
  5
12319
102
{ACAD_REACTORS
330
D
102
}
330
D
100
AcDbGroup
300

 70
     1
 71
     1
  0
GROUP
  5
208A
102
{ACAD_REACTORS
330
D
102
}
330
D
100
AcDbGroup
300

 70
     1
 71
     1
  0
GROUP
  5
12EB
102
{ACAD_REACTORS
330
D
102
}
330
D
100
AcDbGroup
300

 70
     1
 71
     1
  0
GROUP
  5
3D3A
102
{ACAD_REACTORS
330
D
102
}
330
D
100
AcDbGroup
300

 70
     1
 71
     1
  0
GROUP
  5
125E1
102
{ACAD_REACTORS
330
D
102
}
330
D
100
AcDbGroup
300

 70
     1
 71
     1
  0
GROUP
  5
9A9B
102
{ACAD_REACTORS
330
D
102
}
330
D
100
AcDbGroup
300

 70
     1
 71
     1
  0
GROUP
  5
110CD
102
{ACAD_REACTORS
330
D
102
}
330
D
100
AcDbGroup
300

 70
     1
 71
     1
  0
GROUP
  5
11EC
102
{ACAD_REACTORS
330
D
102
}
330
D
100
AcDbGroup
300

 70
     1
 71
     1
  0
GROUP
  5
967D
102
{ACAD_REACTORS
330
D
102
}
330
D
100
AcDbGroup
300

 70
     1
 71
     1
  0
GROUP
  5
BF39
102
{ACAD_REACTORS
330
D
102
}
330
D
100
AcDbGroup
300

 70
     1
 71
     1
  0
GROUP
  5
BF3A
102
{ACAD_REACTORS
330
D
102
}
330
D
100
AcDbGroup
300

 70
     1
 71
     1
  0
GROUP
  5
BF3B
102
{ACAD_REACTORS
330
D
102
}
330
D
100
AcDbGroup
300

 70
     1
 71
     1
  0
GROUP
  5
FF55
102
{ACAD_REACTORS
330
D
102
}
330
D
100
AcDbGroup
300

 70
     1
 71
     1
  0
GROUP
  5
1232E
102
{ACAD_REACTORS
330
D
102
}
330
D
100
AcDbGroup
300

 70
     1
 71
     1
  0
GROUP
  5
21C8
102
{ACAD_REACTORS
330
D
102
}
330
D
100
AcDbGroup
300

 70
     1
 71
     1
  0
GROUP
  5
111B8
102
{ACAD_REACTORS
330
D
102
}
330
D
100
AcDbGroup
300

 70
     1
 71
     1
  0
GROUP
  5
940A
102
{ACAD_REACTORS
330
D
102
}
330
D
100
AcDbGroup
300

 70
     1
 71
     1
  0
GROUP
  5
125E2
102
{ACAD_REACTORS
330
D
102
}
330
D
100
AcDbGroup
300

 70
     1
 71
     1
  0
GROUP
  5
8DF9
102
{ACAD_REACTORS
330
D
102
}
330
D
100
AcDbGroup
300

 70
     1
 71
     1
  0
GROUP
  5
BF3C
102
{ACAD_REACTORS
330
D
102
}
330
D
100
AcDbGroup
300

 70
     1
 71
     1
  0
GROUP
  5
BF3D
102
{ACAD_REACTORS
330
D
102
}
330
D
100
AcDbGroup
300

 70
     1
 71
     1
  0
GROUP
  5
BF3F
102
{ACAD_REACTORS
330
D
102
}
330
D
100
AcDbGroup
300

 70
     1
 71
     1
  0
GROUP
  5
C8A
102
{ACAD_REACTORS
330
D
102
}
330
D
100
AcDbGroup
300

 70
     1
 71
     1
  0
GROUP
  5
8FB4
102
{ACAD_REACTORS
330
D
102
}
330
D
100
AcDbGroup
300

 70
     1
 71
     1
  0
GROUP
  5
4A7
102
{ACAD_REACTORS
330
D
102
}
330
D
100
AcDbGroup
300

 70
     1
 71
     1
  0
GROUP
  5
BF94
102
{ACAD_REACTORS
330
D
102
}
330
D
100
AcDbGroup
300

 70
     1
 71
     1
  0
GROUP
  5
12382
102
{ACAD_REACTORS
330
D
102
}
330
D
100
AcDbGroup
300

 70
     1
 71
     1
  0
GROUP
  5
D935
102
{ACAD_REACTORS
330
D
102
}
330
D
100
AcDbGroup
300

 70
     1
 71
     1
  0
GROUP
  5
BFE9
102
{ACAD_REACTORS
330
D
102
}
330
D
100
AcDbGroup
300

 70
     1
 71
     1
  0
GROUP
  5
125E3
102
{ACAD_REACTORS
330
D
102
}
330
D
100
AcDbGroup
300

 70
     1
 71
     1
  0
GROUP
  5
967E
102
{ACAD_REACTORS
330
D
102
}
330
D
100
AcDbGroup
300

 70
     1
 71
     1
  0
GROUP
  5
E549
102
{ACAD_REACTORS
330
D
102
}
330
D
100
AcDbGroup
300

 70
     1
 71
     1
  0
GROUP
  5
8D5E
102
{ACAD_REACTORS
330
D
102
}
330
D
100
AcDbGroup
300

 70
     1
 71
     1
  0
GROUP
  5
2082
102
{ACAD_REACTORS
330
D
102
}
330
D
100
AcDbGroup
300

 70
     1
 71
     1
  0
GROUP
  5
BFF8
102
{ACAD_REACTORS
330
D
102
}
330
D
100
AcDbGroup
300

 70
     1
 71
     1
  0
GROUP
  5
2184
102
{ACAD_REACTORS
330
D
102
}
330
D
100
AcDbGroup
300

 70
     1
 71
     1
  0
GROUP
  5
C0C2
102
{ACAD_REACTORS
330
D
102
}
330
D
100
AcDbGroup
300

 70
     1
 71
     1
  0
GROUP
  5
2DD7
102
{ACAD_REACTORS
330
D
102
}
330
D
100
AcDbGroup
300

 70
     1
 71
     1
  0
GROUP
  5
2F3E
102
{ACAD_REACTORS
330
D
102
}
330
D
100
AcDbGroup
300

 70
     1
 71
     1
  0
GROUP
  5
C0C3
102
{ACAD_REACTORS
330
D
102
}
330
D
100
AcDbGroup
300

 70
     1
 71
     1
  0
GROUP
  5
123AC
102
{ACAD_REACTORS
330
D
102
}
330
D
100
AcDbGroup
300

 70
     1
 71
     1
  0
GROUP
  5
125E4
102
{ACAD_REACTORS
330
D
102
}
330
D
100
AcDbGroup
300

 70
     1
 71
     1
  0
GROUP
  5
3A09
102
{ACAD_REACTORS
330
D
102
}
330
D
100
AcDbGroup
300

 70
     1
 71
     1
  0
GROUP
  5
C0D3
102
{ACAD_REACTORS
330
D
102
}
330
D
100
AcDbGroup
300

 70
     1
 71
     1
  0
GROUP
  5
2F6D
102
{ACAD_REACTORS
330
D
102
}
330
D
100
AcDbGroup
300

 70
     1
 71
     1
  0
GROUP
  5
C15C
102
{ACAD_REACTORS
330
D
102
}
330
D
100
AcDbGroup
300

 70
     1
 71
     1
  0
GROUP
  5
8F5B
102
{ACAD_REACTORS
330
D
102
}
330
D
100
AcDbGroup
300

 70
     1
 71
     1
  0
GROUP
  5
2E2D
102
{ACAD_REACTORS
330
D
102
}
330
D
100
AcDbGroup
300

 70
     1
 71
     1
  0
GROUP
  5
C15D
102
{ACAD_REACTORS
330
D
102
}
330
D
100
AcDbGroup
300

 70
     1
 71
     1
  0
GROUP
  5
2ED5
102
{ACAD_REACTORS
330
D
102
}
330
D
100
AcDbGroup
300

 70
     1
 71
     1
  0
GROUP
  5
33AC
102
{ACAD_REACTORS
330
D
102
}
330
D
100
AcDbGroup
300

 70
     1
 71
     1
  0
GROUP
  5
C16B
102
{ACAD_REACTORS
330
D
102
}
330
D
100
AcDbGroup
300

 70
     1
 71
     1
  0
GROUP
  5
1942
102
{ACAD_REACTORS
330
D
102
}
330
D
100
AcDbGroup
300

 70
     1
 71
     1
  0
GROUP
  5
9886
102
{ACAD_REACTORS
330
D
102
}
330
D
100
AcDbGroup
300

 70
     1
 71
     1
  0
GROUP
  5
21BE
102
{ACAD_REACTORS
330
D
102
}
330
D
100
AcDbGroup
300

 70
     1
 71
     1
  0
GROUP
  5
9C6F
102
{ACAD_REACTORS
330
D
102
}
330
D
100
AcDbGroup
300

 70
     1
 71
     1
  0
GROUP
  5
C16E
102
{ACAD_REACTORS
330
D
102
}
330
D
100
AcDbGroup
300

 70
     1
 71
     1
  0
GROUP
  5
FAE
102
{ACAD_REACTORS
330
D
102
}
330
D
100
AcDbGroup
300

 70
     1
 71
     1
  0
GROUP
  5
1769
102
{ACAD_REACTORS
330
D
102
}
330
D
100
AcDbGroup
300

 70
     1
 71
     1
  0
GROUP
  5
C21F
102
{ACAD_REACTORS
330
D
102
}
330
D
100
AcDbGroup
300

 70
     1
 71
     1
  0
GROUP
  5
127B4
102
{ACAD_REACTORS
330
D
102
}
330
D
100
AcDbGroup
300

 70
     1
 71
     1
  0
GROUP
  5
C220
102
{ACAD_REACTORS
330
D
102
}
330
D
100
AcDbGroup
300

 70
     1
 71
     1
  0
GROUP
  5
8FB7
102
{ACAD_REACTORS
330
D
102
}
330
D
100
AcDbGroup
300

 70
     1
 71
     1
  0
GROUP
  5
C26B
102
{ACAD_REACTORS
330
D
102
}
330
D
100
AcDbGroup
300

 70
     1
 71
     1
  0
GROUP
  5
C348
102
{ACAD_REACTORS
330
D
102
}
330
D
100
AcDbGroup
300

 70
     1
 71
     1
  0
GROUP
  5
3917
102
{ACAD_REACTORS
330
D
102
}
330
D
100
AcDbGroup
300

 70
     1
 71
     1
  0
GROUP
  5
125E5
102
{ACAD_REACTORS
330
D
102
}
330
D
100
AcDbGroup
300

 70
     1
 71
     1
  0
GROUP
  5
32C7
102
{ACAD_REACTORS
330
D
102
}
330
D
100
AcDbGroup
300

 70
     1
 71
     1
  0
GROUP
  5
1733
102
{ACAD_REACTORS
330
D
102
}
330
D
100
AcDbGroup
300

 70
     1
 71
     1
  0
GROUP
  5
2102
102
{ACAD_REACTORS
330
D
102
}
330
D
100
AcDbGroup
300

 70
     1
 71
     1
  0
GROUP
  5
80CD
102
{ACAD_REACTORS
330
D
102
}
330
D
100
AcDbGroup
300

 70
     1
 71
     1
  0
GROUP
  5
12995
102
{ACAD_REACTORS
330
D
102
}
330
D
100
AcDbGroup
300

 70
     1
 71
     1
  0
GROUP
  5
4BA
102
{ACAD_REACTORS
330
D
102
}
330
D
100
AcDbGroup
300

 70
     1
 71
     1
  0
GROUP
  5
374
102
{ACAD_REACTORS
330
D
102
}
330
D
100
AcDbGroup
300

 70
     1
 71
     1
  0
GROUP
  5
1DB4
102
{ACAD_REACTORS
330
D
102
}
330
D
100
AcDbGroup
300

 70
     1
 71
     1
  0
GROUP
  5
C349
102
{ACAD_REACTORS
330
D
102
}
330
D
100
AcDbGroup
300

 70
     1
 71
     1
  0
GROUP
  5
310A
102
{ACAD_REACTORS
330
D
102
}
330
D
100
AcDbGroup
300

 70
     1
 71
     1
  0
GROUP
  5
C359
102
{ACAD_REACTORS
330
D
102
}
330
D
100
AcDbGroup
300

 70
     1
 71
     1
  0
GROUP
  5
125E6
102
{ACAD_REACTORS
330
D
102
}
330
D
100
AcDbGroup
300

 70
     1
 71
     1
  0
GROUP
  5
C367
102
{ACAD_REACTORS
330
D
102
}
330
D
100
AcDbGroup
300

 70
     1
 71
     1
  0
GROUP
  5
3F6
102
{ACAD_REACTORS
330
D
102
}
330
D
100
AcDbGroup
300

 70
     1
 71
     1
  0
GROUP
  5
2721
102
{ACAD_REACTORS
330
D
102
}
330
D
100
AcDbGroup
300

 70
     1
 71
     1
  0
GROUP
  5
3617
102
{ACAD_REACTORS
330
D
102
}
330
D
100
AcDbGroup
300

 70
     1
 71
     1
  0
GROUP
  5
C481
102
{ACAD_REACTORS
330
D
102
}
330
D
100
AcDbGroup
300

 70
     1
 71
     1
  0
GROUP
  5
C482
102
{ACAD_REACTORS
330
D
102
}
330
D
100
AcDbGroup
300

 70
     1
 71
     1
  0
GROUP
  5
C483
102
{ACAD_REACTORS
330
D
102
}
330
D
100
AcDbGroup
300

 70
     1
 71
     1
  0
GROUP
  5
C484
102
{ACAD_REACTORS
330
D
102
}
330
D
100
AcDbGroup
300

 70
     1
 71
     1
  0
GROUP
  5
C485
102
{ACAD_REACTORS
330
D
102
}
330
D
100
AcDbGroup
300

 70
     1
 71
     1
  0
GROUP
  5
110E3
102
{ACAD_REACTORS
330
D
102
}
330
D
100
AcDbGroup
300

 70
     1
 71
     1
  0
GROUP
  5
1903
102
{ACAD_REACTORS
330
D
102
}
330
D
100
AcDbGroup
300

 70
     1
 71
     1
  0
GROUP
  5
125E7
102
{ACAD_REACTORS
330
D
102
}
330
D
100
AcDbGroup
300

 70
     1
 71
     1
  0
GROUP
  5
110D1
102
{ACAD_REACTORS
330
D
102
}
330
D
100
AcDbGroup
300

 70
     1
 71
     1
  0
GROUP
  5
39FE
102
{ACAD_REACTORS
330
D
102
}
330
D
100
AcDbGroup
300

 70
     1
 71
     1
  0
GROUP
  5
112BC
102
{ACAD_REACTORS
330
D
102
}
330
D
100
AcDbGroup
300

 70
     1
 71
     1
  0
GROUP
  5
9310
102
{ACAD_REACTORS
330
D
102
}
330
D
100
AcDbGroup
300

 70
     1
 71
     1
  0
GROUP
  5
E55B
102
{ACAD_REACTORS
330
D
102
}
330
D
100
AcDbGroup
300

 70
     1
 71
     1
  0
GROUP
  5
C4F8
102
{ACAD_REACTORS
330
D
102
}
330
D
100
AcDbGroup
300

 70
     1
 71
     1
  0
GROUP
  5
7FF7
102
{ACAD_REACTORS
330
D
102
}
330
D
100
AcDbGroup
300

 70
     1
 71
     1
  0
GROUP
  5
328A
102
{ACAD_REACTORS
330
D
102
}
330
D
100
AcDbGroup
300

 70
     1
 71
     1
  0
GROUP
  5
7FF8
102
{ACAD_REACTORS
330
D
102
}
330
D
100
AcDbGroup
300

 70
     1
 71
     1
  0
GROUP
  5
7FF9
102
{ACAD_REACTORS
330
D
102
}
330
D
100
AcDbGroup
300

 70
     1
 71
     1
  0
GROUP
  5
3C59
102
{ACAD_REACTORS
330
D
102
}
330
D
100
AcDbGroup
300

 70
     1
 71
     1
  0
GROUP
  5
1262F
102
{ACAD_REACTORS
330
D
102
}
330
D
100
AcDbGroup
300

 70
     1
 71
     1
  0
GROUP
  5
8002
102
{ACAD_REACTORS
330
D
102
}
330
D
100
AcDbGroup
300

 70
     1
 71
     1
  0
GROUP
  5
12997
102
{ACAD_REACTORS
330
D
102
}
330
D
100
AcDbGroup
300

 70
     1
 71
     1
  0
GROUP
  5
8060
102
{ACAD_REACTORS
330
D
102
}
330
D
100
AcDbGroup
300

 70
     1
 71
     1
  0
GROUP
  5
10284
102
{ACAD_REACTORS
330
D
102
}
330
D
100
AcDbGroup
300

 70
     1
 71
     1
  0
GROUP
  5
8F8B
102
{ACAD_REACTORS
330
D
102
}
330
D
100
AcDbGroup
300

 70
     1
 71
     1
  0
GROUP
  5
112B7
102
{ACAD_REACTORS
330
D
102
}
330
D
100
AcDbGroup
300

 70
     1
 71
     1
  0
GROUP
  5
2E28
102
{ACAD_REACTORS
330
D
102
}
330
D
100
AcDbGroup
300

 70
     1
 71
     1
  0
GROUP
  5
3176
102
{ACAD_REACTORS
330
D
102
}
330
D
100
AcDbGroup
300

 70
     1
 71
     1
  0
GROUP
  5
89AD
102
{ACAD_REACTORS
330
D
102
}
330
D
100
AcDbGroup
300

 70
     1
 71
     1
  0
GROUP
  5
8061
102
{ACAD_REACTORS
330
D
102
}
330
D
100
AcDbGroup
300

 70
     1
 71
     1
  0
GROUP
  5
2CF8
102
{ACAD_REACTORS
330
D
102
}
330
D
100
AcDbGroup
300

 70
     1
 71
     1
  0
GROUP
  5
12690
102
{ACAD_REACTORS
330
D
102
}
330
D
100
AcDbGroup
300

 70
     1
 71
     1
  0
GROUP
  5
12998
102
{ACAD_REACTORS
330
D
102
}
330
D
100
AcDbGroup
300

 70
     1
 71
     1
340
12881
340
12880
340
1287F
340
1287E
340
1287D
340
1287C
340
1287B
340
1287A
340
12879
340
12878
340
12877
  0
GROUP
  5
408
102
{ACAD_REACTORS
330
D
102
}
330
D
100
AcDbGroup
300

 70
     1
 71
     1
  0
GROUP
  5
C17
102
{ACAD_REACTORS
330
D
102
}
330
D
100
AcDbGroup
300

 70
     1
 71
     1
  0
GROUP
  5
536
102
{ACAD_REACTORS
330
D
102
}
330
D
100
AcDbGroup
300

 70
     1
 71
     1
  0
GROUP
  5
439
102
{ACAD_REACTORS
330
D
102
}
330
D
100
AcDbGroup
300

 70
     1
 71
     1
  0
GROUP
  5
2081
102
{ACAD_REACTORS
330
D
102
}
330
D
100
AcDbGroup
300

 70
     1
 71
     1
  0
GROUP
  5
E08B
102
{ACAD_REACTORS
330
D
102
}
330
D
100
AcDbGroup
300

 70
     1
 71
     1
  0
GROUP
  5
10286
102
{ACAD_REACTORS
330
D
102
}
330
D
100
AcDbGroup
300

 70
     1
 71
     1
  0
GROUP
  5
82B8
102
{ACAD_REACTORS
330
D
102
}
330
D
100
AcDbGroup
300

 70
     1
 71
     1
  0
GROUP
  5
110E9
102
{ACAD_REACTORS
330
D
102
}
330
D
100
AcDbGroup
300

 70
     1
 71
     1
  0
GROUP
  5
D5D
102
{ACAD_REACTORS
330
D
102
}
330
D
100
AcDbGroup
300

 70
     1
 71
     1
  0
GROUP
  5
12711
102
{ACAD_REACTORS
330
D
102
}
330
D
100
AcDbGroup
300

 70
     1
 71
     1
  0
GROUP
  5
8F8C
102
{ACAD_REACTORS
330
D
102
}
330
D
100
AcDbGroup
300

 70
     1
 71
     1
  0
GROUP
  5
208E
102
{ACAD_REACTORS
330
D
102
}
330
D
100
AcDbGroup
300

 70
     1
 71
     1
  0
GROUP
  5
8062
102
{ACAD_REACTORS
330
D
102
}
330
D
100
AcDbGroup
300

 70
     1
 71
     1
  0
GROUP
  5
967F
102
{ACAD_REACTORS
330
D
102
}
330
D
100
AcDbGroup
300

 70
     1
 71
     1
  0
GROUP
  5
8063
102
{ACAD_REACTORS
330
D
102
}
330
D
100
AcDbGroup
300

 70
     1
 71
     1
  0
GROUP
  5
21AA
102
{ACAD_REACTORS
330
D
102
}
330
D
100
AcDbGroup
300

 70
     1
 71
     1
  0
GROUP
  5
9311
102
{ACAD_REACTORS
330
D
102
}
330
D
100
AcDbGroup
300

 70
     1
 71
     1
  0
GROUP
  5
9C70
102
{ACAD_REACTORS
330
D
102
}
330
D
100
AcDbGroup
300

 70
     1
 71
     1
  0
GROUP
  5
31CA
102
{ACAD_REACTORS
330
D
102
}
330
D
100
AcDbGroup
300

 70
     1
 71
     1
  0
GROUP
  5
1299A
102
{ACAD_REACTORS
330
D
102
}
330
D
100
AcDbGroup
300

 70
     1
 71
     1
  0
GROUP
  5
16F9
102
{ACAD_REACTORS
330
D
102
}
330
D
100
AcDbGroup
300

 70
     1
 71
     1
  0
GROUP
  5
1272F
102
{ACAD_REACTORS
330
D
102
}
330
D
100
AcDbGroup
300

 70
     1
 71
     1
  0
GROUP
  5
80CA
102
{ACAD_REACTORS
330
D
102
}
330
D
100
AcDbGroup
300

 70
     1
 71
     1
  0
GROUP
  5
208D
102
{ACAD_REACTORS
330
D
102
}
330
D
100
AcDbGroup
300

 70
     1
 71
     1
  0
GROUP
  5
3C9C
102
{ACAD_REACTORS
330
D
102
}
330
D
100
AcDbGroup
300

 70
     1
 71
     1
  0
GROUP
  5
80CB
102
{ACAD_REACTORS
330
D
102
}
330
D
100
AcDbGroup
300

 70
     1
 71
     1
  0
GROUP
  5
1626
102
{ACAD_REACTORS
330
D
102
}
330
D
100
AcDbGroup
300

 70
     1
 71
     1
  0
GROUP
  5
80CC
102
{ACAD_REACTORS
330
D
102
}
330
D
100
AcDbGroup
300

 70
     1
 71
     1
  0
GROUP
  5
3D5D
102
{ACAD_REACTORS
330
D
102
}
330
D
100
AcDbGroup
300

 70
     1
 71
     1
  0
GROUP
  5
C7DF
102
{ACAD_REACTORS
330
D
102
}
330
D
100
AcDbGroup
300

 70
     1
 71
     1
  0
GROUP
  5
1299C
102
{ACAD_REACTORS
330
D
102
}
330
D
100
AcDbGroup
300

 70
     1
 71
     1
  0
GROUP
  5
9C7C
102
{ACAD_REACTORS
330
D
102
}
330
D
100
AcDbGroup
300

 70
     1
 71
     1
  0
GROUP
  5
71AE
102
{ACAD_REACTORS
330
D
102
}
330
D
100
AcDbGroup
300

 70
     1
 71
     1
  0
GROUP
  5
9620
102
{ACAD_REACTORS
330
D
102
}
330
D
100
AcDbGroup
300

 70
     1
 71
     1
  0
GROUP
  5
2741
102
{ACAD_REACTORS
330
D
102
}
330
D
100
AcDbGroup
300

 70
     1
 71
     1
  0
GROUP
  5
1C16
102
{ACAD_REACTORS
330
D
102
}
330
D
100
AcDbGroup
300

 70
     1
 71
     1
  0
GROUP
  5
144
102
{ACAD_REACTORS
330
D
102
}
330
D
100
AcDbGroup
300

 70
     1
 71
     1
  0
GROUP
  5
C7E0
102
{ACAD_REACTORS
330
D
102
}
330
D
100
AcDbGroup
300

 70
     1
 71
     1
  0
GROUP
  5
210C
102
{ACAD_REACTORS
330
D
102
}
330
D
100
AcDbGroup
300

 70
     1
 71
     1
  0
GROUP
  5
87AB
102
{ACAD_REACTORS
330
D
102
}
330
D
100
AcDbGroup
300

 70
     1
 71
     1
  0
GROUP
  5
C7E1
102
{ACAD_REACTORS
330
D
102
}
330
D
100
AcDbGroup
300

 70
     1
 71
     1
  0
GROUP
  5
129EE
102
{ACAD_REACTORS
330
D
102
}
330
D
100
AcDbGroup
300

 70
     1
 71
     1
340
129EC
340
129EB
340
129EA
340
129E9
340
129E8
340
129E7
340
129E6
340
129E5
340
129E4
340
129E3
340
129E2
340
129E1
340
129E0
340
129DF
340
129DE
340
129DD
340
129DC
340
129DB
340
129DA
340
129D9
340
129D8
340
129D7
340
129D6
340
129D5
340
129D4
340
129D3
340
129D2
340
129D1
340
129D0
340
129CF
340
129CE
340
129CD
340
129CC
340
129CB
340
129CA
340
129C9
340
129C8
  0
GROUP
  5
C7E2
102
{ACAD_REACTORS
330
D
102
}
330
D
100
AcDbGroup
300

 70
     1
 71
     1
  0
GROUP
  5
184D
102
{ACAD_REACTORS
330
D
102
}
330
D
100
AcDbGroup
300

 70
     1
 71
     1
  0
GROUP
  5
9C81
102
{ACAD_REACTORS
330
D
102
}
330
D
100
AcDbGroup
300

 70
     1
 71
     1
  0
GROUP
  5
112B9
102
{ACAD_REACTORS
330
D
102
}
330
D
100
AcDbGroup
300

 70
     1
 71
     1
  0
GROUP
  5
C7E3
102
{ACAD_REACTORS
330
D
102
}
330
D
100
AcDbGroup
300

 70
     1
 71
     1
  0
GROUP
  5
C7E4
102
{ACAD_REACTORS
330
D
102
}
330
D
100
AcDbGroup
300

 70
     1
 71
     1
  0
GROUP
  5
9C66
102
{ACAD_REACTORS
330
D
102
}
330
D
100
AcDbGroup
300

 70
     1
 71
     1
  0
GROUP
  5
C7E5
102
{ACAD_REACTORS
330
D
102
}
330
D
100
AcDbGroup
300

 70
     1
 71
     1
  0
GROUP
  5
C7E6
102
{ACAD_REACTORS
330
D
102
}
330
D
100
AcDbGroup
300

 70
     1
 71
     1
  0
GROUP
  5
9680
102
{ACAD_REACTORS
330
D
102
}
330
D
100
AcDbGroup
300

 70
     1
 71
     1
  0
GROUP
  5
129FA
102
{ACAD_REACTORS
330
D
102
}
330
D
100
AcDbGroup
300

 70
     1
 71
     1
340
129F9
340
129F8
340
129F7
340
129F6
340
129F5
340
129F4
340
129F3
340
129F2
340
129F1
340
129F0
340
129EF
  0
GROUP
  5
C7E7
102
{ACAD_REACTORS
330
D
102
}
330
D
100
AcDbGroup
300

 70
     1
 71
     1
  0
GROUP
  5
2085
102
{ACAD_REACTORS
330
D
102
}
330
D
100
AcDbGroup
300

 70
     1
 71
     1
  0
GROUP
  5
C7F5
102
{ACAD_REACTORS
330
D
102
}
330
D
100
AcDbGroup
300

 70
     1
 71
     1
  0
GROUP
  5
211F
102
{ACAD_REACTORS
330
D
102
}
330
D
100
AcDbGroup
300

 70
     1
 71
     1
  0
GROUP
  5
D946
102
{ACAD_REACTORS
330
D
102
}
330
D
100
AcDbGroup
300

 70
     1
 71
     1
  0
GROUP
  5
E08D
102
{ACAD_REACTORS
330
D
102
}
330
D
100
AcDbGroup
300

 70
     1
 71
     1
  0
GROUP
  5
9CB6
102
{ACAD_REACTORS
330
D
102
}
330
D
100
AcDbGroup
300

 70
     1
 71
     1
  0
GROUP
  5
544
102
{ACAD_REACTORS
330
D
102
}
330
D
100
AcDbGroup
300

 70
     1
 71
     1
  0
GROUP
  5
38EB
102
{ACAD_REACTORS
330
D
102
}
330
D
100
AcDbGroup
300

 70
     1
 71
     1
  0
GROUP
  5
9A94
102
{ACAD_REACTORS
330
D
102
}
330
D
100
AcDbGroup
300

 70
     1
 71
     1
  0
GROUP
  5
DF2
102
{ACAD_REACTORS
330
D
102
}
330
D
100
AcDbGroup
300

 70
     1
 71
     1
  0
GROUP
  5
E54A
102
{ACAD_REACTORS
330
D
102
}
330
D
100
AcDbGroup
300

 70
     1
 71
     1
  0
GROUP
  5
9C67
102
{ACAD_REACTORS
330
D
102
}
330
D
100
AcDbGroup
300

 70
     1
 71
     1
  0
GROUP
  5
C804
102
{ACAD_REACTORS
330
D
102
}
330
D
100
AcDbGroup
300

 70
     1
 71
     1
  0
GROUP
  5
8DFA
102
{ACAD_REACTORS
330
D
102
}
330
D
100
AcDbGroup
300

 70
     1
 71
     1
  0
GROUP
  5
C813
102
{ACAD_REACTORS
330
D
102
}
330
D
100
AcDbGroup
300

 70
     1
 71
     1
  0
GROUP
  5
C814
102
{ACAD_REACTORS
330
D
102
}
330
D
100
AcDbGroup
300

 70
     1
 71
     1
  0
GROUP
  5
961F
102
{ACAD_REACTORS
330
D
102
}
330
D
100
AcDbGroup
300

 70
     1
 71
     1
  0
GROUP
  5
8DFF
102
{ACAD_REACTORS
330
D
102
}
330
D
100
AcDbGroup
300

 70
     1
 71
     1
  0
GROUP
  5
9D2B
102
{ACAD_REACTORS
330
D
102
}
330
D
100
AcDbGroup
300

 70
     1
 71
     1
  0
GROUP
  5
E63F
102
{ACAD_REACTORS
330
D
102
}
330
D
100
AcDbGroup
300

 70
     1
 71
     1
  0
LAYOUT
  5
51
102
{ACAD_REACTORS
330
1A
102
}
330
1A
100
AcDbPlotSettings
  1

  2
none_device
  4
ANSI_C_(17.00_x_22.00_Inches)
  6

 40
6.349999904632567
 41
19.04999923706055
 42
6.350006103515625
 43
19.04998779296875
 44
431.7999877929685
 45
558.7999877929686
 46
0.0
 47
0.0
 48
0.0
 49
0.0
140
0.0
141
0.0
142
1.0
143
1.0
 70
   688
 72
     1
 73
     1
 74
     5
  7

 75
    16
147
1.0
 76
     1
 77
     2
 78
   300
148
0.0
149
0.0
100
AcDbLayout
  1
Layout1
 70
     1
 71
     1
 10
-19.04998779296875
 20
-6.349999904632567
 11
539.7499999999999
 21
425.4499878883361
 12
0.0
 22
0.0
 32
0.0
 14
52.07000007629384
 24
41.90999817848211
 34
0.0
 15
468.6300006866455
 25
377.1899836063385
 35
0.0
146
0.0
 13
0.0
 23
0.0
 33
0.0
 16
1.0
 26
0.0
 36
0.0
 17
0.0
 27
1.0
 37
0.0
 76
     0
330
50
331
221
  0
LAYOUT
  5
56
102
{ACAD_REACTORS
330
1A
102
}
330
1A
100
AcDbPlotSettings
  1

  2
none_device
  4
ANSI_A_(8.50_x_11.00_Inches)
  6

 40
6.349999904632567
 41
19.04999923706055
 42
6.350006103515625
 43
19.04998779296875
 44
215.8999938964844
 45
279.3999938964844
 46
0.0
 47
0.0
 48
0.0
 49
0.0
140
0.0
141
0.0
142
1.0
143
1.0
 70
   688
 72
     0
 73
     1
 74
     5
  7

 75
    16
147
1.0
 76
     1
 77
     2
 78
   300
148
0.0
149
0.0
100
AcDbLayout
  1
Layout2
 70
     1
 71
     2
 10
-0.7499995194082186
 20
-0.2499999962453767
 11
10.25000024029589
 21
8.249999763458731
 12
0.0
 22
0.0
 32
0.0
 14
0.9500000270332876
 24
0.7999999523162833
 34
0.0
 15
8.550000243299589
 25
7.199999570846554
 35
0.0
146
0.0
 13
0.0
 23
0.0
 33
0.0
 16
1.0
 26
0.0
 36
0.0
 17
0.0
 27
1.0
 37
0.0
 76
     0
330
55
331
229
  0
LAYOUT
  5
22
102
{ACAD_REACTORS
330
1A
102
}
330
1A
100
AcDbPlotSettings
  1

  2
none_device
  4
ISO_A0_(841.00_x_1189.00_MM)
  6

 40
7.5
 41
20.0
 42
7.5
 43
20.0
 44
841.0
 45
1189.0
 46
0.0
 47
0.0
 48
0.0
 49
0.0
140
0.0
141
0.0
142
1.0
143
100.0
 70
 11952
 72
     1
 73
     1
 74
     2
  7

 75
    26
147
0.01
 76
     0
 77
     2
 78
   300
148
0.0
149
0.0
100
AcDbLayout
  1
Model
 70
     1
 71
     0
 10
0.0
 20
0.0
 11
12.0
 21
9.0
 12
0.0
 22
0.0
 32
0.0
 14
0.0
 24
0.0
 34
0.0
 15
0.0
 25
0.0
 35
0.0
146
0.0
 13
0.0
 23
0.0
 33
0.0
 16
1.0
 26
0.0
 36
0.0
 17
0.0
 27
1.0
 37
0.0
 76
     0
330
1F
  0
MLINESTYLE
  5
18
102
{ACAD_REACTORS
330
17
102
}
330
17
100
AcDbMlineStyle
  2
STANDARD
 70
     0
  3

 62
   256
 51
90.0
 52
90.0
 71
     2
 49
0.5
 62
   256
  6
BYLAYER
 49
-0.5
 62
   256
  6
BYLAYER
  0
ACDBPLACEHOLDER
  5
F
102
{ACAD_REACTORS
330
E
102
}
330
E
  0
ACAD_PROXY_OBJECT
  5
1133A
102
{ACAD_REACTORS
330
11339
102
}
330
11339
100
AcDbProxyObject
 90
      499
 91
      507
 95
       25
 70
     0
 93
     1849
310
4214DD185B99185C992420000000000000F83F0000000000003E0FC00000000000004901028000000C1008070000C3001FDFF8000000C1003FBFF000000182007F7FE00000030400FEFFC00000060801FDFF8000000C1003FBFF000000182000000000000000C2020B0000001820100E000186003FBFF000000182007F7FE0
310
0000030400FEFFC00000060801FDFF8000000C1003FBFF000000182007F7FE0000003040000000000000012404160000003040201C00030C007F7FE00000030400FEFFC00000060801FDFF8000000C1003FBFF000000182007F7FE00000030400FEFFC000000608000
340
11
340
11
340
11
 94
        0
1001
ACAD
1000
AcRTDxfName
1000
TABLESTYLE
  0
DICTIONARYVAR
  5
113A3
102
{ACAD_REACTORS
330
5E
102
}
330
5E
100
DictionaryVariables
280
     0
  1
STANDARD
  0
DICTIONARYVAR
  5
5F
102
{ACAD_REACTORS
330
5E
102
}
330
5E
100
DictionaryVariables
280
     0
  1
2
  0
DICTIONARYVAR
  5
63
102
{ACAD_REACTORS
330
5E
102
}
330
5E
100
DictionaryVariables
280
     0
  1
1
  0
DICTIONARYVAR
  5
105
102
{ACAD_REACTORS
330
5E
102
}
330
5E
100
DictionaryVariables
280
     0
  1

  0
ENDSEC
  0
EOF
